  0
SECTION
  2
HEADER
  9
$ACADVER
  1
AC1009
  9
$INSBASE
 10
0.0
 20
0.0
 30
0.0
  9
$EXTMIN
 10
20.0
 20
0.0
 30
0.0
  9
$EXTMAX
 10
820.0
 20
560.0
 30
0.0
  9
$LIMMIN
 10
0.0
 20
0.0
  9
$LIMMAX
 10
800.0
 20
560.0
  9
$ORTHOMODE
 70
     0
  9
$REGENMODE
 70
     1
  9
$FILLMODE
 70
     1
  9
$QTEXTMODE
 70
     0
  9
$MIRRTEXT
 70
     1
  9
$DRAGMODE
 70
     2
  9
$LTSCALE
 40
2.0
  9
$OSMODE
 70
   959
  9
$ATTMODE
 70
     1
  9
$TEXTSIZE
 40
73.985717453579113
  9
$TRACEWID
 40
1.0
  9
$TEXTSTYLE
  7
STANDARD
  9
$CLAYER
  8
TK1
  9
$CELTYPE
  6
BYLAYER
  9
$CECOLOR
 62
   256
  9
$DIMSCALE
 40
2.0
  9
$DIMASZ
 40
2.5
  9
$DIMEXO
 40
1.0
  9
$DIMDLI
 40
10.0
  9
$DIMRND
 40
0.0
  9
$DIMDLE
 40
0.0
  9
$DIMEXE
 40
1.0
  9
$DIMTP
 40
0.1
  9
$DIMTM
 40
0.1
  9
$DIMTXT
 40
3.5
  9
$DIMCEN
 40
0.0
  9
$DIMTSZ
 40
0.0
  9
$DIMTOL
 70
     0
  9
$DIMLIM
 70
     0
  9
$DIMTIH
 70
     0
  9
$DIMTOH
 70
     0
  9
$DIMSE1
 70
     0
  9
$DIMSE2
 70
     0
  9
$DIMTAD
 70
     1
  9
$DIMZIN
 70
     8
  9
$DIMBLK
  1
OPEN30
  9
$DIMASO
 70
     1
  9
$DIMSHO
 70
     1
  9
$DIMPOST
  1

  9
$DIMAPOST
  1
"
  9
$DIMALT
 70
     0
  9
$DIMALTD
 70
     2
  9
$DIMALTF
 40
0.0393701
  9
$DIMLFAC
 40
1.0
  9
$DIMTOFL
 70
     1
  9
$DIMTVP
 40
0.0
  9
$DIMTIX
 70
     0
  9
$DIMSOXD
 70
     0
  9
$DIMSAH
 70
     0
  9
$DIMBLK1
  1

  9
$DIMBLK2
  1

  9
$DIMSTYLE
  2
AM_ISO
  9
$DIMCLRD
 70
   256
  9
$DIMCLRE
 70
   256
  9
$DIMCLRT
 70
     2
  9
$DIMTFAC
 40
0.71
  9
$DIMGAP
 40
1.5
  9
$LUNITS
 70
     2
  9
$LUPREC
 70
     2
  9
$SKETCHINC
 40
1.0
  9
$FILLETRAD
 40
5.0
  9
$AUNITS
 70
     0
  9
$AUPREC
 70
     0
  9
$MENU
  1
.
  9
$ELEVATION
 40
0.0
  9
$PELEVATION
 40
0.0
  9
$THICKNESS
 40
0.0
  9
$LIMCHECK
 70
     0
  9
$BLIPMODE
 70
     0
  9
$CHAMFERA
 40
5.0
  9
$CHAMFERB
 40
5.0
  9
$SKPOLY
 70
     0
  9
$TDCREATE
 40
2453711.4748965511
  9
$TDUPDATE
 40
2454708.710298935
  9
$TDINDWG
 40
0.252440706
  9
$TDUSRTIMER
 40
0.2524405208
  9
$USRTIMER
 70
     1
  9
$ANGBASE
 50
0.0
  9
$ANGDIR
 70
     0
  9
$PDMODE
 70
     0
  9
$PDSIZE
 40
0.0
  9
$PLINEWID
 40
0.0
  9
$COORDS
 70
     1
  9
$SPLFRAME
 70
     0
  9
$SPLINETYPE
 70
     6
  9
$SPLINESEGS
 70
     8
  9
$ATTDIA
 70
     1
  9
$ATTREQ
 70
     1
  9
$HANDLING
 70
     1
  9
$HANDSEED
  5
2DCD
  9
$SURFTAB1
 70
     6
  9
$SURFTAB2
 70
     6
  9
$SURFTYPE
 70
     6
  9
$SURFU
 70
     6
  9
$SURFV
 70
     6
  9
$UCSNAME
  2

  9
$UCSORG
 10
0.0
 20
0.0
 30
0.0
  9
$UCSXDIR
 10
1.0
 20
0.0
 30
0.0
  9
$UCSYDIR
 10
0.0
 20
1.0
 30
0.0
  9
$PUCSNAME
  2

  9
$PUCSORG
 10
0.0
 20
0.0
 30
0.0
  9
$PUCSXDIR
 10
1.0
 20
0.0
 30
0.0
  9
$PUCSYDIR
 10
0.0
 20
1.0
 30
0.0
  9
$USERI1
 70
     0
  9
$USERI2
 70
     0
  9
$USERI3
 70
     0
  9
$USERI4
 70
     0
  9
$USERI5
 70
     0
  9
$USERR1
 40
0.0
  9
$USERR2
 40
0.0
  9
$USERR3
 40
0.0
  9
$USERR4
 40
0.0
  9
$USERR5
 40
0.0
  9
$WORLDVIEW
 70
     1
  9
$SHADEDGE
 70
     3
  9
$SHADEDIF
 70
    70
  9
$TILEMODE
 70
     1
  9
$MAXACTVP
 70
    64
  9
$PLIMCHECK
 70
     0
  9
$PEXTMIN
 10
1.0000000000000000E+020
 20
1.0000000000000000E+020
 30
1.0000000000000000E+020
  9
$PEXTMAX
 10
-1.0000000000000000E+020
 20
-1.0000000000000000E+020
 30
-1.0000000000000000E+020
  9
$PLIMMIN
 10
-6.350006103515625
 20
-6.3499999046325684
  9
$PLIMMAX
 10
273.04998779296881
 20
209.54999399185181
  9
$UNITMODE
 70
     0
  9
$VISRETAIN
 70
     1
  9
$PLINEGEN
 70
     0
  9
$PSLTSCALE
 70
     1
  0
ENDSEC
  0
SECTION
  2
TABLES
  0
TABLE
  2
VPORT
 70
     3
  0
VPORT
  2
*ACTIVE
 70
     0
 10
0.0
 20
0.0
 11
1.0
 21
1.0
 12
420.02579487897219
 22
293.0868062142153
 13
0.0
 23
0.0
 14
5.0
 24
5.0
 15
20.0
 25
20.0
 16
0.0
 26
0.0
 36
1.0
 17
0.0
 27
0.0
 37
0.0
 40
590.49672648643366
 41
1.4600484261501201
 42
50.0
 43
0.0
 44
0.0
 50
0.0
 51
0.0
 71
     0
 72
   100
 73
     1
 74
     3
 75
     0
 76
     0
 77
     0
 78
     0
  0
ENDTAB
  0
TABLE
  2
LTYPE
 70
    20
  0
LTYPE
  2
CONTINUOUS
 70
     0
  3
Solid line
 72
    65
 73
     0
 40
0.0
  0
LTYPE
  2
AM_ISO02W050
 70
     0
  3
__ __ __ __ __ __ __ __ __ __ __ __ __ __ __
 72
    65
 73
     2
 40
7.5
 49
6.0
 49
-1.5
  0
LTYPE
  2
AM_ISO08W050
 70
     0
  3
____ . ____ . ____ . ____ . ____ . ____ . ____
 72
    65
 73
     4
 40
18.0
 49
12.0
 49
-1.5
 49
3.0
 49
-1.5
  0
LTYPE
  2
AM_ISO09W050
 70
     0
  3
_____ . . _____ . . _____ . . ____ .. ____
 72
    65
 73
     6
 40
22.5
 49
12.0
 49
-1.5
 49
3.0
 49
-1.5
 49
3.0
 49
-1.5
  0
LTYPE
  2
AMCONSTR
 70
     0
  3
_______________________
 72
    65
 73
     2
 40
9999.0
 49
9999.0
 49
0.0
  0
LTYPE
  2
AM_ISO08W050X2
 70
     0
  3
__ . __ . __ . __ . __ . __
 72
    65
 73
     4
 40
9.0
 49
6.0
 49
-0.75
 49
1.5
 49
-0.75
  0
LTYPE
  2
AM_ISO02W050X2
 70
     0
  3
 _ _ _ _ _ _ _ _ _ _ _ _
 72
    65
 73
     2
 40
3.75
 49
3.0
 49
-0.75
  0
LTYPE
  2
AMZIGZAG
 70
     0
  3
/\/-/\/-/\/-/\/-/\/-/\/
 72
    65
 73
     2
 40
11.0001
 49
0.0001
 49
-11.0
  0
LTYPE
  2
ACISOWELD
 70
     0
  3
_ _ _ _ _
 72
    65
 73
     2
 40
2.0
 49
2.0
 49
-1.0
  0
LTYPE
  2
ACISOTGB
 70
     0
  3
__ . . __ . .
 72
    65
 73
     6
 40
9.0
 49
4.0
 49
-1.0
 49
1.0
 49
-1.0
 49
1.0
 49
-1.0
  0
LTYPE
  2
ACISOTGL
 70
     0
  3
_ _ _ _ _
 72
    65
 73
     2
 40
3.0
 49
2.0
 49
-1.0
  0
LTYPE
  2
CENTER
 70
     0
  3
__ . __
 72
    65
 73
     4
 40
7.0
 49
4.0
 49
-1.0
 49
1.0
 49
-1.0
  0
LTYPE
  2
HIDDEN
 70
     0
  3
Hidden __ __ __ __ __ __ __ __ __ __ __ __ __ _
 72
    65
 73
     2
 40
9.5249999999999986
 49
6.3499999999999988
 49
-3.1749999999999989
  0
LTYPE
  2
PHANTOM2
 70
     0
  3
Phantom (.5x) ___ _ _ ___ _ _ ___ _ _ ___ _ _
 72
    65
 73
     6
 40
31.75
 49
15.875
 49
-3.1749999999999989
 49
3.1749999999999989
 49
-3.1749999999999989
 49
3.1749999999999989
 49
-3.1749999999999989
  0
LTYPE
  2
GEN3
 70
     0
  3
-- -- -- -- -- -- -- -- -- -- -- -- -- -- --
 72
    65
 73
     2
 40
6.25
 49
4.75
 49
-1.5
  0
LTYPE
  2
GEN7
 70
     0
  3
____ . ____ . ____ . ____ . ____ . ____ . ____
 72
    65
 73
     4
 40
13.75
 49
9.75
 49
-1.5
 49
1.0
 49
-1.5
  0
LTYPE
  2
GEN3A
 70
     0
  3
 - - - - -
 72
    65
 73
     2
 40
3.125
 49
2.25
 49
-0.875
  0
LTYPE
  2
GEN7A
 70
     0
  3
__ . __ . __
 72
    65
 73
     4
 40
6.875
 49
4.75
 49
-0.875
 49
0.375
 49
-0.875
  0
LTYPE
  2
GEN4A
 70
     0
  3
_____ . . _____ . . _____ . . ____ .. ____
 72
    65
 73
     6
 40
16.25
 49
9.75
 49
-1.5
 49
1.0
 49
-1.5
 49
1.0
 49
-1.5
  0
LTYPE
  2
GENZIGZAG
 70
     0
  3
/\/-/\/-/\/-/\/-/\/-/\/
 72
    65
 73
     2
 40
12.0001
 49
0.0001
 49
-12.0
  0
ENDTAB
  0
TABLE
  2
LAYER
 70
    17
  0
LAYER
  2
0
 70
     0
 62
     7
  6
CONTINUOUS
  0
LAYER
  2
DEFPOINTS
 70
     0
 62
     7
  6
CONTINUOUS
  0
LAYER
  2
TK1
 70
     0
 62
     7
  6
CONTINUOUS
  0
LAYER
  2
TK10
 70
     0
 62
     7
  6
AM_ISO02W050X2
  0
LAYER
  2
TK2
 70
     0
 62
    51
  6
CONTINUOUS
  0
LAYER
  2
TK3
 70
     0
 62
    91
  6
CONTINUOUS
  0
LAYER
  2
TK20
 70
     0
 62
    51
  6
AM_ISO02W050X2
  0
LAYER
  2
TK30
 70
     0
 62
    91
  6
AM_ISO02W050X2
  0
LAYER
  2
AM_5
 70
     0
 62
     3
  6
CONTINUOUS
  0
LAYER
  2
7A
 70
     0
 62
     4
  6
GEN7A
  0
LAYER
  2
RAHM2
 70
     0
 62
     1
  6
CONTINUOUS
  0
LAYER
  2
KLIN
 70
     0
 62
     1
  6
CONTINUOUS
  0
LAYER
  2
AM_12
 70
     0
 62
     7
  6
CONTINUOUS
  0
LAYER
  2
AM_PAREF
 70
     0
 62
     4
  6
CONTINUOUS
  0
LAYER
  2
AM_7
 70
     0
 62
     4
  6
AM_ISO08W050
  0
LAYER
  2
AM_CL
 70
     0
 62
     1
  6
AMCONSTR
  0
LAYER
  2
AM_8
 70
     0
 62
     1
  6
CONTINUOUS
  0
ENDTAB
  0
TABLE
  2
STYLE
 70
     5
  0
STYLE
  2
STANDARD
 70
     0
 40
0.0
 41
1.0
 50
0.0
 71
     0
 42
73.985717453579113
  3
ISOCP.SHX
  4
bigfont.shx
  0
STYLE
  2

 70
     1
 40
0.0
 41
1.0
 50
0.0
 71
     0
 42
2.5
  3
ltypeshp.shx
  4

  0
STYLE
  2
ACISOTS
 70
     0
 40
1.0
 41
1.0
 50
0.0
 71
     0
 42
2.5
  3
isocp.shx
  4
extfont.shx
  0
STYLE
  2
ACISOGDT
 70
     0
 40
0.0
 41
1.0
 50
0.0
 71
     0
 42
2.5
  3
amgdt.shx
  4

  0
STYLE
  2

 70
     1
 40
0.0
 41
1.0
 50
0.0
 71
     0
 42
3.0
  3
genltshp.shx
  4

  0
ENDTAB
  0
TABLE
  2
VIEW
 70
     6
  0
VIEW
  2
AM_VIEW1
 70
     0
 40
280.0
 10
230.41666666666671
 20
420.0
 41
460.83333333333331
 11
0.0
 21
0.0
 31
1.0
 12
0.0
 22
0.0
 32
0.0
 42
50.0
 43
0.0
 44
0.0
 50
0.0
 71
     0
  0
VIEW
  2
AM_VIEW2
 70
     0
 40
280.0
 10
569.58333333333326
 20
420.0
 41
460.83333333333331
 11
0.0
 21
0.0
 31
1.0
 12
0.0
 22
0.0
 32
0.0
 42
50.0
 43
0.0
 44
0.0
 50
0.0
 71
     0
  0
VIEW
  2
AM_VIEW3
 70
     0
 40
280.0
 10
230.41666666666671
 20
140.0
 41
460.83333333333331
 11
0.0
 21
0.0
 31
1.0
 12
0.0
 22
0.0
 32
0.0
 42
50.0
 43
0.0
 44
0.0
 50
0.0
 71
     0
  0
VIEW
  2
AM_VIEW4
 70
     0
 40
280.0
 10
569.58333333333326
 20
140.0
 41
460.83333333333331
 11
0.0
 21
0.0
 31
1.0
 12
0.0
 22
0.0
 32
0.0
 42
50.0
 43
0.0
 44
0.0
 50
0.0
 71
     0
  0
VIEW
  2
AM_VIEW5
 70
     0
 40
280.0
 10
400.0
 20
280.0
 41
460.8333333333332
 11
0.0
 21
0.0
 31
1.0
 12
0.0
 22
0.0
 32
0.0
 42
50.0
 43
0.0
 44
0.0
 50
0.0
 71
     0
  0
VIEW
  2
AM_VIEW6
 70
     0
 40
559.99440000000004
 10
400.0
 20
280.0
 41
921.65745000000015
 11
0.0
 21
0.0
 31
1.0
 12
0.0
 22
0.0
 32
0.0
 42
50.0
 43
0.0
 44
0.0
 50
0.0
 71
     0
  0
ENDTAB
  0
TABLE
  2
UCS
 70
     0
  0
ENDTAB
  0
TABLE
  2
APPID
 70
    37
  0
APPID
  2
ACAD
 70
     0
  0
APPID
  2
MCAD_NO_VIS
 70
     0
  0
APPID
  2
ACAD_TEMP_GRAPHIC
 70
     0
  0
APPID
  2
ACATTRIBSERVICES
 70
     0
  0
APPID
  2
AD_DRAW
 70
     0
  0
APPID
  2
DESIGNERASSEMBLIES
 70
     0
  0
APPID
  2
ACADM_DIM_EDIT
 70
     0
  0
APPID
  2
AMDT_DM_ADJ
 70
     0
  0
APPID
  2
GENIUS_GENREC_14
 70
     0
  0
APPID
  2
GENIUS_GENODEF_13
 70
     0
  0
APPID
  2
GENIUS_GENOBJ-N-REC_13
 70
     0
  0
APPID
  2
GENIUS_GENDIMSH_14
 70
     0
  0
APPID
  2
GENIUS_GENCFG_13
 70
     0
  0
APPID
  2
GENIUS_GENCFG0_13
 70
     0
  0
APPID
  2
GENIUS_GENCFG1_13
 70
     0
  0
APPID
  2
GENIUS_GENCFG2_13
 70
     0
  0
APPID
  2
GENIUS_GENCFG3_13
 70
     0
  0
APPID
  2
GENIUS_GENCFG4_13
 70
     0
  0
APPID
  2
GENIUS_GEVCFG0_13
 70
     0
  0
APPID
  2
GENIUS_GENOENT_13
 70
     0
  0
APPID
  2
GENIUS_GENOBJ-N-CRS_13
 70
     0
  0
APPID
  2
GENIUS_GENOREF_13
 70
     0
  0
APPID
  2
GENIUS_GENOLIS_13
 70
     0
  0
APPID
  2
GENIUS_GENOBJ-N-TIT_13
 70
     0
  0
APPID
  2
GENIUS_GENTITLE_13
 70
     0
  0
APPID
  2
GENIUS_GENSCREG_15
 70
     0
  0
APPID
  2
GENIUS_GENOBJ-N-SDF_13
 70
     0
  0
APPID
  2
GENIUS_GENOBJ-N-CEN_13
 70
     0
  0
APPID
  2
GENIUS_GENOBJ-N-HTC_13
 70
     0
  0
APPID
  2
GENIUS_GENHATCH_13
 70
     0
  0
APPID
  2
GENIUS_GENOBJ-N-ZOO_13
 70
     0
  0
APPID
  2
GENIUS_GENZOO_17
 70
     0
  0
APPID
  2
GENIUS_GENOBJ-N-FIL_13
 70
     0
  0
APPID
  2
GENIUS_GENFIL_13
 70
     0
  0
APPID
  2
ACAD_PSEXT
 70
     0
  0
APPID
  2
GENIUS_GENCEN_19
 70
     0
  0
APPID
  2
GENIUS_GENSCREG_13
 70
     0
  0
ENDTAB
  0
TABLE
  2
DIMSTYLE
 70
    14
  0
DIMSTYLE
  2
AM_ISO
 70
     0
  3

  4
"
  5
OPEN30
  6

  7

 40
1.0
 41
2.5
 42
1.0
 43
10.0
 44
1.0
 45
0.0
 46
0.0
 47
0.1
 48
0.1
140
3.5
141
0.0
142
0.0
143
0.0393701
144
1.0
145
0.0
146
0.71
147
1.5
 71
     0
 72
     0
 73
     0
 74
     0
 75
     0
 76
     0
 77
     1
 78
     8
170
     0
171
     2
172
     1
173
     0
174
     0
175
     0
176
   256
177
   256
178
     2
  0
DIMSTYLE
  2
AM_ISO$3
 70
     0
  3

  4
"
  5
OPEN30
  6

  7

 40
1.0
 41
2.5
 42
1.0
 43
10.0
 44
1.0
 45
0.0
 46
0.0
 47
0.1
 48
0.1
140
3.5
141
0.0
142
0.0
143
0.0393701
144
1.0
145
0.0
146
0.71
147
1.5
 71
     0
 72
     0
 73
     0
 74
     1
 75
     0
 76
     0
 77
     1
 78
     8
170
     0
171
     2
172
     0
173
     0
174
     0
175
     0
176
   256
177
   256
178
     2
  0
DIMSTYLE
  2
AM_ISO$4
 70
     0
  3

  4
"
  5
OPEN30
  6

  7

 40
1.0
 41
2.5
 42
1.0
 43
10.0
 44
1.0
 45
0.0
 46
0.0
 47
0.1
 48
0.1
140
3.5
141
0.0
142
0.0
143
0.0393701
144
1.0
145
0.0
146
0.71
147
1.5
 71
     0
 72
     0
 73
     0
 74
     1
 75
     0
 76
     0
 77
     1
 78
     8
170
     0
171
     2
172
     0
173
     0
174
     0
175
     0
176
   256
177
   256
178
     2
  0
DIMSTYLE
  2
AM_ISO$6
 70
     0
  3

  4
"
  5
OPEN30
  6

  7

 40
1.0
 41
2.5
 42
1.0
 43
10.0
 44
1.0
 45
0.0
 46
0.0
 47
0.1
 48
0.1
140
3.5
141
0.0
142
0.0
143
0.0393701
144
1.0
145
0.0
146
0.71
147
1.5
 71
     0
 72
     0
 73
     0
 74
     0
 75
     0
 76
     0
 77
     0
 78
     8
170
     0
171
     2
172
     1
173
     0
174
     0
175
     0
176
   256
177
   256
178
     2
  0
DIMSTYLE
  2
AM_ISO$7
 70
     0
  3

  4
"
  5
OPEN30
  6

  7

 40
1.0
 41
2.5
 42
1.0
 43
10.0
 44
1.0
 45
0.0
 46
0.0
 47
0.1
 48
0.1
140
5.0
141
0.0
142
0.0
143
0.0393701
144
1.0
145
0.0
146
0.71
147
1.5
 71
     0
 72
     0
 73
     0
 74
     0
 75
     0
 76
     0
 77
     1
 78
     8
170
     0
171
     2
172
     1
173
     0
174
     0
175
     0
176
   256
177
   256
178
     2
  0
DIMSTYLE
  2
AM_ISO$SF
 70
     0
  3

  4
"
  5
OPEN30
  6

  7

 40
1.0
 41
2.5
 42
1.0
 43
10.0
 44
1.0
 45
0.0
 46
0.0
 47
0.1
 48
0.1
140
3.5
141
0.0
142
0.0
143
0.0393701
144
1.0
145
0.0
146
0.71
147
1.5
 71
     0
 72
     0
 73
     0
 74
     0
 75
     1
 76
     1
 77
     1
 78
     8
170
     0
171
     2
172
     1
173
     0
174
     0
175
     0
176
   256
177
   256
178
     2
  0
DIMSTYLE
  2
AM_ISO$SH
 70
     0
  3

  4
"
  5

  6
GENAXEH
  7
OPEN30
 40
1.0
 41
2.5
 42
1.0
 43
10.0
 44
1.0
 45
0.0
 46
0.0
 47
0.1
 48
0.1
140
3.5
141
0.0
142
0.0
143
0.0393701
144
2.0
145
0.0
146
0.71
147
1.5
 71
     0
 72
     0
 73
     0
 74
     0
 75
     1
 76
     1
 77
     1
 78
     8
170
     0
171
     2
172
     1
173
     1
174
     0
175
     0
176
   256
177
   256
178
     2
  0
DIMSTYLE
  2
GEN-ISO
 70
     0
  3

  4
"
  5

  6

  7

 40
1.0
 41
2.5
 42
1.0
 43
10.0
 44
1.0
 45
0.0
 46
0.0
 47
0.1
 48
0.1
140
3.5
141
0.0
142
0.0
143
0.0393701
144
1.0
145
0.0
146
0.71
147
1.5
 71
     0
 72
     0
 73
     0
 74
     0
 75
     0
 76
     0
 77
     1
 78
     8
170
     0
171
     2
172
     1
173
     0
174
     0
175
     0
176
   256
177
   256
178
     2
  0
DIMSTYLE
  2
GEN-ISO$3
 70
     0
  3

  4
"
  5

  6

  7

 40
1.0
 41
2.5
 42
1.0
 43
10.0
 44
1.0
 45
0.0
 46
0.0
 47
0.1
 48
0.1
140
3.5
141
0.0
142
0.0
143
0.0393701
144
1.0
145
0.0
146
0.71
147
1.5
 71
     0
 72
     0
 73
     0
 74
     1
 75
     0
 76
     0
 77
     1
 78
     8
170
     0
171
     2
172
     0
173
     0
174
     0
175
     0
176
   256
177
   256
178
     2
  0
DIMSTYLE
  2
GEN-ISO$4
 70
     0
  3

  4
"
  5

  6

  7

 40
1.0
 41
2.5
 42
1.0
 43
10.0
 44
1.0
 45
0.0
 46
0.0
 47
0.1
 48
0.1
140
3.5
141
0.0
142
0.0
143
0.0393701
144
1.0
145
0.0
146
0.71
147
1.5
 71
     0
 72
     0
 73
     0
 74
     1
 75
     0
 76
     0
 77
     1
 78
     8
170
     0
171
     2
172
     0
173
     0
174
     0
175
     0
176
   256
177
   256
178
     2
  0
DIMSTYLE
  2
GEN-ISO$6
 70
     0
  3

  4
"
  5

  6

  7

 40
1.0
 41
2.5
 42
1.0
 43
10.0
 44
1.0
 45
0.0
 46
0.0
 47
0.1
 48
0.1
140
3.5
141
0.0
142
0.0
143
0.0393701
144
1.0
145
0.0
146
0.71
147
1.5
 71
     0
 72
     0
 73
     0
 74
     0
 75
     0
 76
     0
 77
     0
 78
     8
170
     0
171
     2
172
     0
173
     0
174
     0
175
     0
176
   256
177
   256
178
     2
  0
DIMSTYLE
  2
GEN-ISO-POS
 70
     0
  3

  4
"
  5

  6

  7

 40
1.0
 41
2.5
 42
1.0
 43
10.0
 44
1.0
 45
0.0
 46
0.0
 47
0.1
 48
0.1
140
5.0
141
0.0
142
0.0
143
0.0393701
144
1.0
145
0.0
146
0.71
147
1.5
 71
     0
 72
     0
 73
     0
 74
     0
 75
     0
 76
     0
 77
     0
 78
     8
170
     0
171
     2
172
     0
173
     0
174
     0
175
     0
176
   256
177
   256
178
     2
  0
DIMSTYLE
  2
GEN-ISO-AXE-F
 70
     0
  3

  4
"
  5

  6

  7

 40
1.0
 41
2.5
 42
1.0
 43
10.0
 44
1.0
 45
0.0
 46
0.0
 47
0.1
 48
0.1
140
3.5
141
0.0
142
0.0
143
0.0393701
144
1.0
145
0.0
146
0.71
147
1.5
 71
     0
 72
     0
 73
     0
 74
     0
 75
     1
 76
     1
 77
     1
 78
     8
170
     0
171
     2
172
     1
173
     0
174
     0
175
     0
176
   256
177
   256
178
     2
  0
DIMSTYLE
  2
GEN-ISO-AXE-H
 70
     0
  3

  4
"
  5

  6

  7

 40
1.0
 41
2.5
 42
1.0
 43
10.0
 44
1.0
 45
0.0
 46
0.0
 47
0.1
 48
0.1
140
3.5
141
0.0
142
0.0
143
0.0393701
144
2.0
145
0.0
146
0.71
147
1.5
 71
     0
 72
     0
 73
     0
 74
     0
 75
     1
 76
     1
 77
     1
 78
     8
170
     0
171
     2
172
     1
173
     1
174
     0
175
     0
176
   256
177
   256
178
     2
  0
ENDTAB
  0
ENDSEC
  0
SECTION
  2
BLOCKS
  0
BLOCK
  8
0
  2
$MODEL_SPACE
 70
     0
 10
0.0
 20
0.0
 30
0.0
  3
$MODEL_SPACE
  1

  0
ENDBLK
  5
21
  8
0
  0
BLOCK
 67
     1
  8
0
  2
$PAPER_SPACE
 70
     0
 10
0.0
 20
0.0
 30
0.0
  3
$PAPER_SPACE
  1

  0
ENDBLK
  5
25
 67
     1
  8
0
  0
BLOCK
  8
0
  2
GENAXEH
 70
     0
 10
0.0
 20
0.0
 30
0.0
  3
GENAXEH
  1

  0
LINE
  5
88
  8
0
 10
-1.0
 20
0.0
 30
0.0
 11
1.0
 21
0.0
 31
0.0
  0
ENDBLK
  5
8A
  8
0
  0
BLOCK
  8
0
  2
_OPEN30
 70
     0
 10
0.0
 20
0.0
 30
0.0
  3
_OPEN30
  1

  0
LINE
  5
408
  8
0
  6
BYBLOCK
 62
     0
 10
-1.0
 20
0.26794919
 30
0.0
 11
0.0
 21
0.0
 31
0.0
  0
LINE
  5
409
  8
0
  6
BYBLOCK
 62
     0
 10
0.0
 20
0.0
 30
0.0
 11
-1.0
 21
-0.26794919
 31
0.0
  0
LINE
  5
40A
  8
0
  6
BYBLOCK
 62
     0
 10
0.0
 20
0.0
 30
0.0
 11
-1.0
 21
0.0
 31
0.0
  0
ENDBLK
  5
40C
  8
0
  0
BLOCK
  8
0
  2
TAKACHI-A3
 70
     0
 10
0.0
 20
0.0
 30
0.0
  3
TAKACHI-A3
  1

  0
TEXT
  5
59F
  8
0
 10
15.00000000000003
 20
50.0
 30
0.0
 40
2.5
  1
!GENTITLE-LL
  0
TEXT
  5
5A0
  8
0
 10
410.0
 20
0.0
 30
0.0
 40
2.5
  1
!GENTITLE-INSERT
  0
TEXT
  5
5A1
  8
0
 10
405.0
 20
275.0
 30
0.0
 40
2.5
  1
!GENTITLE-RU
  0
TEXT
  5
5A2
  8
0
 10
410.0
 20
280.0
 30
0.0
 40
2.5
  1
!GENTITLE-MAX
  0
LINE
  5
5A3
  8
0
 10
366.0
 20
275.0
 30
0.0
 11
410.0
 21
275.0
 31
0.0
  0
TEXT
  8
0
  40
2.5
  5
2DCC
  72
0
  71
0
 10
409.359
 20
272.859
 30
0.000000
  1
(文書番号：TY-34)2004.10.29
  0
LINE
  5
5A5
  8
0
 10
366.0
 20
280.0
 30
0.0
 11
366.0
 21
275.0
 31
0.0
  0
ENDBLK
  5
5A8
  8
0
  0
BLOCK
  8
0
  2
TAKACHI-TITLE
 70
     2
 10
0.0
 20
0.0
 30
0.0
  3
TAKACHI-TITLE
  1

  0
LINE
  5
5B6
  8
RAHM2
 10
-195.0
 20
30.000000000000028
 30
0.0
 11
-94.0
 21
30.000000000000028
 31
0.0
  0
LINE
  5
5B7
  8
RAHM2
 10
-195.0
 20
35.000000000000028
 30
0.0
 11
-94.0
 21
35.000000000000028
 31
0.0
  0
LINE
  5
5B8
  8
RAHM2
 10
-195.0
 20
40.000000000000021
 30
0.0
 11
-94.0
 21
40.000000000000021
 31
0.0
  0
LINE
  5
5B9
  8
RAHM2
 10
-195.0
 20
45.000000000000021
 30
0.0
 11
-94.0
 21
45.000000000000021
 31
0.0
  0
LINE
  5
5BA
  8
0
 10
-195.0
 20
7.0
 30
0.0
 11
-94.0
 21
7.0
 31
0.0
  0
LINE
  5
5BB
  8
0
 10
-195.0
 20
19.999999999999972
 30
0.0
 11
-94.0
 21
19.999999999999972
 31
0.0
  0
ATTDEF
  5
5BC
  8
0
 10
-183.24385271456069
 20
8.9508505244280823
 30
0.0
 40
2.5
  1

 11
-183.24385271456069
 21
8.6175171910947483
 31
0.0
  3
サブタイトル
  2
GEN-TITLE-DES2
 70
     0
 74
     1
  0
ATTDEF
  5
5BD
  8
0
 10
-183.24385271456069
 20
2.0175171910947478
 30
0.0
 40
3.0
  1

 11
-183.24385271456069
 21
1.6175171910947479
 31
0.0
  3
図番
  2
GEN-TITLE-NR
 70
     0
 74
     1
  0
INSERT
  5
5BE
  8
TK1
  2
*U9
 10
0.0
 20
0.0
 30
0.0
  0
ATTDEF
  5
5BF
  8
0
 10
-183.24385271456069
 20
14.40728619501834
 30
0.0
 40
4.0
  1

 11
-183.24385271456069
 21
13.873952861685011
 31
0.0
  3
品名
  2
GEN-TITLE-DES1
 70
     0
 74
     1
  0
LINE
  5
5C0
  8
RAHM2
 10
-187.57512886940361
 20
30.400000000000041
 30
0.0
 11
-190.0
 21
34.60000000000003
 31
0.0
  0
LINE
  5
5C1
  8
RAHM2
 10
-190.0
 20
34.60000000000003
 30
0.0
 11
-192.42487113059639
 21
30.400000000000041
 31
0.0
  0
LINE
  5
5C2
  8
RAHM2
 10
-185.0
 20
50.000000000000028
 30
0.0
 11
-185.0
 21
19.99999999999994
 31
0.0
  0
LINE
  5
5C3
  8
RAHM2
 10
-192.42487113059639
 20
30.400000000000041
 30
0.0
 11
-187.57512886940361
 21
30.400000000000041
 31
0.0
  0
INSERT
  5
5C4
  8
TK1
  2
*U10
 10
0.0
 20
0.0
 30
0.0
  0
INSERT
  5
5C5
  8
TK1
  2
*U11
 10
0.0
 20
0.0
 30
0.0
  0
LINE
  5
5C6
  8
RAHM2
 10
-192.42487113059639
 20
45.400000000000027
 30
0.0
 11
-187.57512886940361
 21
45.400000000000027
 31
0.0
  0
LINE
  5
5C7
  8
RAHM2
 10
-187.57512886940361
 20
45.400000000000027
 30
0.0
 11
-190.0
 21
49.600000000000023
 31
0.0
  0
LINE
  5
5C8
  8
RAHM2
 10
-192.42487113059639
 20
40.400000000000027
 30
0.0
 11
-187.57512886940361
 21
40.400000000000027
 31
0.0
  0
LINE
  5
5C9
  8
RAHM2
 10
-187.57512886940361
 20
40.400000000000027
 30
0.0
 11
-190.0
 21
44.600000000000023
 31
0.0
  0
LINE
  5
5CA
  8
RAHM2
 10
-192.42487113059639
 20
35.400000000000041
 30
0.0
 11
-187.57512886940361
 21
35.400000000000041
 31
0.0
  0
LINE
  5
5CB
  8
RAHM2
 10
-187.57512886940361
 20
35.400000000000041
 30
0.0
 11
-190.0
 21
39.600000000000023
 31
0.0
  0
LINE
  5
5CC
  8
RAHM2
 10
-190.0
 20
39.600000000000023
 30
0.0
 11
-192.42487113059639
 21
35.400000000000041
 31
0.0
  0
LINE
  5
5CD
  8
RAHM2
 10
-190.0
 20
44.600000000000023
 30
0.0
 11
-192.42487113059639
 21
40.400000000000027
 31
0.0
  0
LINE
  5
5CE
  8
RAHM2
 10
-190.0
 20
49.600000000000023
 30
0.0
 11
-192.42487113059639
 21
45.400000000000027
 31
0.0
  0
LINE
  5
5CF
  8
RAHM2
 10
-129.0
 20
50.000000000000028
 30
0.0
 11
-129.0
 21
19.99999999999994
 31
0.0
  0
INSERT
  5
5D0
  8
TK1
  2
*U12
 10
0.0
 20
0.0
 30
0.0
  0
LINE
  5
5D1
  8
0
 10
-34.0
 20
50.0
 30
0.0
 11
-34.0
 21
0.0
 31
0.0
  0
LINE
  5
5D2
  8
0
 10
-94.0
 20
50.0
 30
0.0
 11
-94.0
 21
0.0
 31
0.0
  0
INSERT
  5
5D3
  8
TK1
  2
*U13
 10
0.0
 20
0.0
 30
0.0
  0
LINE
  5
5D4
  8
0
 10
-94.0
 20
10.0
 30
0.0
 11
-34.0
 21
10.0
 31
0.0
  0
ATTDEF
  5
5D5
  8
0
 10
-58.014051197997453
 20
39.255005561783491
 30
0.0
 40
3.0
  1

 72
     2
 11
-58.014051197997453
 21
39.255005561783491
 31
0.0
  3
尺度
  2
GEN-TITLE-SCA
 70
     0
  0
ATTDEF
  5
5D6
  8
0
 10
-77.002849666490064
 20
31.02180787943475
 30
0.0
 40
3.0
  1

 11
-77.002849666490064
 21
30.621807879434751
 31
0.0
  3
材質
  2
GEN-TITLE-MAT1
 70
     0
 74
     1
  0
ATTDEF
  5
5D7
  8
0
 10
-77.002849666490064
 20
21.02180787943475
 30
0.0
 40
3.0
  1

 11
-77.002849666490064
 21
20.621807879434751
 31
0.0
  3
表面処理
  2
GEN-TITLE-MAT2
 70
     0
 74
     1
  0
ATTDEF
  5
5D8
  8
0
 10
-77.002849666490064
 20
12.01751719109475
 30
0.0
 40
3.0
  1

 11
-77.002849666490064
 21
11.61751719109475
 31
0.0
  3
日付
  2
GEN-TITLE-DAT
 70
     0
 74
     1
  0
LINE
  5
5D9
  8
0
 10
-94.0
 20
37.5
 30
0.0
 11
-34.0
 21
37.5
 31
0.0
  0
LINE
  5
5DA
  8
0
 10
-94.0
 20
27.5
 30
0.0
 11
-34.0
 21
27.5
 31
0.0
  0
LINE
  5
5DB
  8
0
 10
-94.0
 20
17.5
 30
0.0
 11
-34.0
 21
17.5
 31
0.0
  0
LINE
  5
5DC
  8
RAHM2
 10
-109.0
 20
50.000000000000028
 30
0.0
 11
-109.0
 21
19.99999999999994
 31
0.0
  0
INSERT
  5
5DD
  8
TK1
  2
*U14
 10
0.0
 20
0.0
 30
0.0
  0
INSERT
  5
5DE
  8
TK1
  2
*U15
 10
0.0
 20
0.0
 30
0.0
  0
INSERT
  5
5DF
  8
TK1
  2
*U16
 10
0.0
 20
0.0
 30
0.0
  0
INSERT
  5
5E0
  8
TK1
  2
*U17
 10
0.0
 20
0.0
 30
0.0
  0
INSERT
  5
5E1
  8
TK1
  2
*U18
 10
0.0
 20
0.0
 30
0.0
  0
INSERT
  5
5E2
  8
TK1
  2
*U19
 10
0.0
 20
0.0
 30
0.0
  0
INSERT
  5
5E3
  8
TK1
  2
*U20
 10
0.0
 20
0.0
 30
0.0
  0
INSERT
  5
5E4
  8
TK1
  2
*U21
 10
0.0
 20
0.0
 30
0.0
  0
LINE
  5
5E5
  8
7A
 10
-89.0
 20
43.75
 30
0.0
 11
-75.218691599714703
 21
43.75
 31
0.0
1001
GENIUS_GENOREF_13
1005
5F8
  0
LINE
  5
5E6
  8
0
 10
-84.0
 20
45.75
 30
0.0
 11
-76.0
 21
46.749999999999993
 31
0.0
  0
LINE
  5
5E7
  8
0
 10
-76.0
 20
40.75
 30
0.0
 11
-84.0
 21
41.749999999999993
 31
0.0
  0
LINE
  5
5E8
  8
7A
 10
-89.0
 20
43.75
 30
0.0
 11
-89.0
 21
47.324786644731482
 31
0.0
1001
GENIUS_GENOREF_13
1005
5F8
  0
CIRCLE
  5
5E9
  8
0
 10
-89.0
 20
43.75
 30
0.0
 40
2.0
  0
CIRCLE
  5
5EA
  8
0
 10
-89.0
 20
43.75
 30
0.0
 40
3.0
  0
LINE
  5
5EB
  8
0
 10
-84.0
 20
41.749999999999993
 30
0.0
 11
-84.0
 21
45.75
 31
0.0
  0
INSERT
  5
5EC
  8
TK1
  2
*U22
 10
0.0
 20
0.0
 30
0.0
  0
LINE
  5
5ED
  8
7A
 10
-89.0
 20
43.75
 30
0.0
 11
-92.723037371251166
 21
43.75
 31
0.0
1001
GENIUS_GENOREF_13
1005
5F8
  0
LINE
  5
5EE
  8
7A
 10
-89.0
 20
43.75
 30
0.0
 11
-89.0
 21
40.039917242284787
 31
0.0
1001
GENIUS_GENOREF_13
1005
5F8
  0
LINE
  5
5EF
  8
0
 10
-76.0
 20
46.749999999999993
 30
0.0
 11
-76.0
 21
40.75
 31
0.0
  0
LINE
  5
5F0
  8
0
 10
-74.0
 20
50.0
 30
0.0
 11
-74.0
 21
37.5
 31
0.0
  0
INSERT
  5
5F1
  8
TK1
  2
*U23
 10
0.0
 20
0.0
 30
0.0
  0
ATTDEF
  5
5F2
  8
0
 10
-37.76317379391503
 20
39.255005561783491
 30
0.0
 40
3.0
  1

 72
     2
 11
-37.76317379391503
 21
39.255005561783491
 31
0.0
  3
数量
  2
GEN-TITLE-QTY
 70
     0
  0
LINE
  5
5F3
  8
0
 10
-34.0
 20
25.0
 30
0.0
 11
0.0
 21
25.0
 31
0.0
  0
LINE
  5
5F4
  8
0
 10
-54.0
 20
50.0
 30
0.0
 11
-54.0
 21
37.5
 31
0.0
  0
INSERT
  5
5F5
  8
TK1
  2
*U24
 10
0.0
 20
0.0
 30
0.0
  0
INSERT
  5
5F6
  8
TK1
  2
*U25
 10
0.0
 20
0.0
 30
0.0
  0
INSERT
  5
5F7
  8
TK1
  2
*U26
 10
0.0
 20
0.0
 30
0.0
  0
POINT
  5
5F8
  8
0
 10
-320.5355579819676
 20
-138.11048412682541
 30
0.0
1001
GENIUS_GENODEF_13
1002
{
1000
HIER
1070
    10
1002
}
1002
{
1000
MANEDIT
1070
     0
1002
}
1002
{
1000
NOSEL
1070
     0
1002
}
1002
{
1000
BEHIND
1070
     0
1002
}
1002
{
1000
REACTOR
1002
}
1001
GENIUS_GENOBJ-N-CRS_13
1002
{
1000
OWNER
1000
GEN
1002
}
1001
GENIUS_GENOENT_13
1002
{
1000
MYREF
1005
5F8
1002
}
1002
{
1000
GRP
1005
0
1002
}
1001
GENIUS_GENOLIS_13
1002
{
1000
ENT
1005
5EE
1005
5ED
1005
5E8
1005
5E5
1002
}
  0
LINE
  5
5F9
  8
RAHM2
 10
-190.0
 20
29.600000000000019
 30
0.0
 11
-192.42487113059639
 21
25.400000000000041
 31
0.0
  0
LINE
  5
5FA
  8
RAHM2
 10
-187.57512886940361
 20
25.400000000000041
 30
0.0
 11
-190.0
 21
29.600000000000019
 31
0.0
  0
LINE
  5
5FB
  8
RAHM2
 10
-192.42487113059639
 20
25.400000000000041
 30
0.0
 11
-187.57512886940361
 21
25.400000000000041
 31
0.0
  0
LINE
  5
5FC
  8
RAHM2
 10
-195.0
 20
25.000000000000028
 30
0.0
 11
-94.0
 21
25.000000000000028
 31
0.0
  0
INSERT
  5
5FD
  8
TK1
  2
*U27
 10
0.0
 20
0.0
 30
0.0
  0
TEXT
  5
5FE
  8
RAHM2
 10
-190.8155863565801
 20
25.98333333333337
 30
0.0
 40
2.5
  1
1
 72
     1
 11
-190.19058635658021
 21
25.650000000000031
 31
0.0
 73
     1
  0
TEXT
  5
5FF
  8
RAHM2
 10
-190.9183316929134
 20
30.98333333333337
 30
0.0
 40
2.5
  1
2
 72
     1
 11
-190.0
 21
30.650000000000031
 31
0.0
 73
     1
  0
TEXT
  5
600
  8
RAHM2
 10
-190.92677669529661
 20
35.983333333333341
 30
0.0
 40
2.5
  1
3
 72
     1
 11
-190.0
 21
35.650000000000013
 31
0.0
 73
     1
  0
TEXT
  5
601
  8
RAHM2
 10
-191.0
 20
40.98333333333337
 30
0.0
 40
2.5
  1
4
 72
     1
 11
-190.0
 21
40.650000000000027
 31
0.0
 73
     1
  0
TEXT
  5
602
  8
RAHM2
 10
-190.92677669529661
 20
45.98333333333337
 30
0.0
 40
2.5
  1
5
 72
     1
 11
-190.0
 21
45.650000000000027
 31
0.0
 73
     1
  0
LINE
  5
603
  8
0
 10
-17.0
 20
50.0
 30
0.0
 11
-17.0
 21
0.0
 31
0.0
  0
LINE
  5
604
  8
0
 10
-195.0
 20
0.0
 30
0.0
 11
0.0
 21
0.0
 31
0.0
1001
GENIUS_GENREC_14
1002
{
1000
PYDIR
1011
-184.0
1021
0.0
1031
0.0
1021
50.0
1031
0.0
1002
}
1002
{
1000
PXDIR
1011
0.0
1021
0.0
1031
0.0
1021
0.0
1031
0.0
1002
}
1002
{
1000
PORI
1011
-184.0
1021
0.0
1031
0.0
1021
0.0
1031
0.0
1002
}
1002
{
1000
PINS
1011
-100.5
1021
0.0
1031
0.0
1021
25.0
1031
0.0
1002
}
1002
{
1000
HVAL
1000
50
1002
}
1002
{
1000
H
1070
     2
1002
}
1002
{
1000
WVAL
1000
167
1002
}
1002
{
1000
W
1070
     2
1002
}
1002
{
1000
C
1070
     4
1002
}
1001
GENIUS_GENODEF_13
1002
{
1000
HIER
1070
     0
1002
}
1002
{
1000
MANEDIT
1070
     0
1002
}
1002
{
1000
NOSEL
1070
     0
1002
}
1002
{
1000
BEHIND
1070
     0
1002
}
1002
{
1000
REACTOR
1002
}
1001
GENIUS_GENOBJ-N-REC_13
1002
{
1000
OWNER
1000
GEN
1002
}
  0
LINE
  5
605
  8
0
 10
0.0
 20
0.0
 30
0.0
 11
0.0
 21
50.0
 31
0.0
1001
GENIUS_GENREC_14
1002
{
1000
PYDIR
1011
-184.0
1021
0.0
1031
0.0
1021
50.0
1031
0.0
1002
}
1002
{
1000
PXDIR
1011
0.0
1021
0.0
1031
0.0
1021
0.0
1031
0.0
1002
}
1002
{
1000
PORI
1011
-184.0
1021
0.0
1031
0.0
1021
0.0
1031
0.0
1002
}
1002
{
1000
PINS
1011
-100.5
1021
0.0
1031
0.0
1021
25.0
1031
0.0
1002
}
1002
{
1000
HVAL
1000
50
1002
}
1002
{
1000
H
1070
     2
1002
}
1002
{
1000
WVAL
1000
167
1002
}
1002
{
1000
W
1070
     2
1002
}
1002
{
1000
C
1070
     4
1002
}
1001
GENIUS_GENODEF_13
1002
{
1000
HIER
1070
     0
1002
}
1002
{
1000
MANEDIT
1070
     0
1002
}
1002
{
1000
NOSEL
1070
     0
1002
}
1002
{
1000
BEHIND
1070
     0
1002
}
1002
{
1000
REACTOR
1002
}
1001
GENIUS_GENOBJ-N-REC_13
1002
{
1000
OWNER
1000
GEN
1002
}
  0
LINE
  5
606
  8
0
 10
0.0
 20
50.0
 30
0.0
 11
-195.0
 21
50.000000000000028
 31
0.0
1001
GENIUS_GENREC_14
1002
{
1000
PYDIR
1011
-184.0
1021
0.0
1031
0.0
1021
50.0
1031
0.0
1002
}
1002
{
1000
PXDIR
1011
0.0
1021
0.0
1031
0.0
1021
0.0
1031
0.0
1002
}
1002
{
1000
PORI
1011
-184.0
1021
0.0
1031
0.0
1021
0.0
1031
0.0
1002
}
1002
{
1000
PINS
1011
-100.5
1021
0.0
1031
0.0
1021
25.0
1031
0.0
1002
}
1002
{
1000
HVAL
1000
50
1002
}
1002
{
1000
H
1070
     2
1002
}
1002
{
1000
WVAL
1000
167
1002
}
1002
{
1000
W
1070
     2
1002
}
1002
{
1000
C
1070
     4
1002
}
1001
GENIUS_GENODEF_13
1002
{
1000
HIER
1070
     0
1002
}
1002
{
1000
MANEDIT
1070
     0
1002
}
1002
{
1000
NOSEL
1070
     0
1002
}
1002
{
1000
BEHIND
1070
     0
1002
}
1002
{
1000
REACTOR
1002
}
1001
GENIUS_GENOBJ-N-REC_13
1002
{
1000
OWNER
1000
GEN
1002
}
  0
LINE
  5
607
  8
0
 10
-195.0
 20
50.000000000000028
 30
0.0
 11
-195.0
 21
0.0
 31
0.0
1001
GENIUS_GENREC_14
1002
{
1000
PYDIR
1011
-195.0
1021
0.0
1031
0.0
1021
50.0
1031
0.0
1002
}
1002
{
1000
PXDIR
1011
-11.0
1021
0.0
1031
0.0
1021
0.0
1031
0.0
1002
}
1002
{
1000
PORI
1011
-195.0
1021
0.0
1031
0.0
1021
0.0
1031
0.0
1002
}
1002
{
1000
PINS
1011
-111.5
1021
0.0
1031
0.0
1021
25.0
1031
0.0
1002
}
1002
{
1000
HVAL
1000
50
1002
}
1002
{
1000
H
1070
     2
1002
}
1002
{
1000
WVAL
1000
167
1002
}
1002
{
1000
W
1070
     2
1002
}
1002
{
1000
C
1070
     4
1002
}
1001
GENIUS_GENODEF_13
1002
{
1000
HIER
1070
     0
1002
}
1002
{
1000
MANEDIT
1070
     0
1002
}
1002
{
1000
NOSEL
1070
     0
1002
}
1002
{
1000
BEHIND
1070
     0
1002
}
1002
{
1000
REACTOR
1002
}
1001
GENIUS_GENOBJ-N-REC_13
1002
{
1000
OWNER
1000
GEN
1002
}
  0
INSERT
  5
608
  8
TK1
  2
*U28
 10
0.0
 20
0.0
 30
0.0
  0
INSERT
  5
609
  8
TK1
  2
*U29
 10
0.0
 20
0.0
 30
0.0
  0
ENDBLK
  5
60C
  8
0
  0
BLOCK
  8
0
  2
*S6
 70
     1
 10
0.0
 20
0.0
 30
0.0
  3
*S6
  1

  0
CIRCLE
  5
2D05
  8
AM_12
 62
     4
 10
448.10432445436322
 20
315.55582116952672
 30
0.0
 40
3.5
  0
LINE
  5
2D06
  8
AM_12
 62
     4
 10
444.60432445436311
 20
312.05582116952672
 30
0.0
 11
451.60432445436322
 21
319.05582116952672
 31
0.0
  0
LINE
  5
2D07
  8
AM_12
 62
     4
 10
444.60432445436311
 20
319.05582116952672
 30
0.0
 11
451.60432445436322
 21
312.05582116952672
 31
0.0
  0
ENDBLK
  5
2D09
  8
0
  0
BLOCK
  8
0
  2
*S7
 70
     1
 10
0.0
 20
0.0
 30
0.0
  3
*S7
  1

  0
LINE
  5
2D0C
  8
AM_5
 10
488.56898993890081
 20
369.366064047056
 30
0.0
 11
452.31143982388772
 21
321.15047757251619
 31
0.0
  0
TRACE
  5
2D0D
  8
AM_5
 10
451.57488933857712
 20
321.70435481608121
 30
0.0
 11
453.04799030919833
 21
320.59660032895118
 31
0.0
 12
448.10432445436322
 22
315.55582116952672
 32
0.0
 13
448.10432445436322
 23
315.55582116952672
 33
0.0
  0
INSERT
  5
2D0E
  8
TK1
  2
*U30
 10
0.0
 20
0.0
 30
0.0
  0
CIRCLE
  5
2D0F
  8
AM_5
 62
     3
 10
500.58931956611349
 20
385.35079662702611
 30
0.0
 40
20.0
  0
ENDBLK
  5
2D11
  8
0
  0
BLOCK
  8
0
  2
*S8
 70
     1
 10
0.0
 20
0.0
 30
0.0
  3
*S8
  1

  0
INSERT
  5
2D14
  8
TK1
  2
*U31
 10
0.0
 20
0.0
 30
0.0
  0
LINE
  5
2D15
  8
0
 62
     1
 10
460.0
 20
137.05000000000001
 30
0.0
 11
460.0
 21
124.7
 31
0.0
  0
INSERT
  5
2D16
  8
TK1
  2
*U32
 10
0.0
 20
0.0
 30
0.0
  0
LINE
  5
2D17
  8
0
 62
     1
 10
560.0
 20
137.05000000000001
 30
0.0
 11
560.0
 21
124.7
 31
0.0
  0
INSERT
  5
2D18
  8
TK1
  2
*U33
 10
0.0
 20
0.0
 30
0.0
  0
LINE
  5
2D19
  8
0
 62
     1
 10
590.0
 20
137.05000000000001
 30
0.0
 11
590.0
 21
124.7
 31
0.0
  0
INSERT
  5
2D1A
  8
TK1
  2
*U34
 10
0.0
 20
0.0
 30
0.0
  0
LINE
  5
2D1B
  8
0
 62
     1
 10
700.0
 20
137.05000000000001
 30
0.0
 11
700.0
 21
124.7
 31
0.0
  0
INSERT
  5
2D1C
  8
TK1
  2
*U35
 10
0.0
 20
0.0
 30
0.0
  0
LINE
  5
2D1D
  8
0
 62
     1
 10
430.0
 20
124.7
 30
0.0
 11
820.0
 21
124.7
 31
0.0
  0
INSERT
  5
2D1E
  8
TK1
  2
*U36
 10
0.0
 20
0.0
 30
0.0
  0
LINE
  5
2D1F
  8
0
 62
     1
 10
460.0
 20
124.7
 30
0.0
 11
460.0
 21
112.34999999999999
 31
0.0
  0
INSERT
  5
2D20
  8
TK1
  2
*U37
 10
0.0
 20
0.0
 30
0.0
  0
LINE
  5
2D21
  8
0
 62
     1
 10
560.0
 20
124.7
 30
0.0
 11
560.0
 21
112.34999999999999
 31
0.0
  0
INSERT
  5
2D22
  8
TK1
  2
*U38
 10
0.0
 20
0.0
 30
0.0
  0
LINE
  5
2D23
  8
0
 62
     1
 10
590.0
 20
124.7
 30
0.0
 11
590.0
 21
112.34999999999999
 31
0.0
  0
INSERT
  5
2D24
  8
TK1
  2
*U39
 10
0.0
 20
0.0
 30
0.0
  0
LINE
  5
2D25
  8
0
 62
     1
 10
700.0
 20
124.7
 30
0.0
 11
700.0
 21
112.34999999999999
 31
0.0
  0
INSERT
  5
2D26
  8
TK1
  2
*U40
 10
0.0
 20
0.0
 30
0.0
  0
INSERT
  5
2D27
  8
TK1
  2
*U41
 10
0.0
 20
0.0
 30
0.0
  0
LINE
  5
2D28
  8
0
 62
     1
 10
430.0
 20
112.34999999999999
 30
0.0
 11
820.0
 21
112.34999999999999
 31
0.0
  0
LINE
  5
2D29
  8
0
 62
     7
 10
430.0
 20
137.05000000000001
 30
0.0
 11
820.0
 21
137.05000000000001
 31
0.0
  0
LINE
  5
2D2A
  8
0
 62
     7
 10
820.0
 20
137.05000000000001
 30
0.0
 11
820.0
 21
100.0
 31
0.0
  0
LINE
  5
2D2B
  8
0
 62
     7
 10
820.0
 20
100.0
 30
0.0
 11
430.0
 21
100.0
 31
0.0
  0
LINE
  5
2D2C
  8
0
 62
     7
 10
430.0
 20
100.0
 30
0.0
 11
430.0
 21
137.05000000000001
 31
0.0
  0
ENDBLK
  5
2D2E
  8
0
  0
BLOCK
  8
0
  2
*U9
 70
     1
 10
0.0
 20
0.0
 30
0.0
  3
*U9
  1

  0
TEXT
  5
2D49
  8
RAHM2
 10
-193.80025513713139
 20
3.3010354072796408
 30
0.0
 40
2.5
  1
図番
  0
ENDBLK
  5
2D4B
  8
0
  0
BLOCK
  8
0
  2
*U10
 70
     1
 10
0.0
 20
0.0
 30
0.0
  3
*U10
  1

  0
TEXT
  5
2D4D
  8
RAHM2
 10
-193.0
 20
21.249999999999972
 30
0.0
 40
2.5
  1
符号
  0
ENDBLK
  5
2D4F
  8
0
  0
BLOCK
  8
0
  2
*U11
 70
     1
 10
0.0
 20
0.0
 30
0.0
  3
*U11
  1

  0
TEXT
  5
2D51
  8
RAHM2
 10
-193.80025513713139
 20
16.30103540727961
 30
0.0
 40
2.5
  1
品名
  0
ENDBLK
  5
2D53
  8
0
  0
BLOCK
  8
0
  2
*U12
 70
     1
 10
0.0
 20
0.0
 30
0.0
  3
*U12
  1

  0
TEXT
  5
2D55
  8
RAHM2
 10
-163.1448171868856
 20
21.249999999999972
 30
0.0
 40
2.5
  1
変更記事
  0
ENDBLK
  5
2D57
  8
0
  0
BLOCK
  8
0
  2
*U13
 70
     1
 10
0.0
 20
0.0
 30
0.0
  3
*U13
  1

  0
TEXT
  5
2D59
  8
0
 10
-88.85532994923858
 20
3.4187817258883251
 30
0.0
 40
3.5
  1
株式会社タカチ電機工業
  0
ENDBLK
  5
2D5B
  8
0
  0
BLOCK
  8
0
  2
*U14
 70
     1
 10
0.0
 20
0.0
 30
0.0
  3
*U14
  1

  0
TEXT
  5
2D5D
  8
RAHM2
 10
-123.3541228057275
 20
31.250000000000028
 30
0.0
 40
2.5
  1
・  ・   
  0
ENDBLK
  5
2D5F
  8
0
  0
BLOCK
  8
0
  2
*U15
 70
     1
 10
0.0
 20
0.0
 30
0.0
  3
*U15
  1

  0
TEXT
  5
2D61
  8
RAHM2
 10
-126.238119805002
 20
21.249999999999972
 30
0.0
 40
2.5
  1
年・月・日
  0
ENDBLK
  5
2D63
  8
0
  0
BLOCK
  8
0
  2
*U16
 70
     1
 10
0.0
 20
0.0
 30
0.0
  3
*U16
  1

  0
TEXT
  5
2D65
  8
RAHM2
 10
-104.5
 20
21.249999999999972
 30
0.0
 40
2.5
  1
担当
  0
ENDBLK
  5
2D67
  8
0
  0
BLOCK
  8
0
  2
*U17
 70
     1
 10
0.0
 20
0.0
 30
0.0
  3
*U17
  1

  0
TEXT
  5
2D69
  8
RAHM2
 10
-123.3541228057275
 20
41.250000000000021
 30
0.0
 40
2.5
  1
・  ・   
  0
ENDBLK
  5
2D6B
  8
0
  0
BLOCK
  8
0
  2
*U18
 70
     1
 10
0.0
 20
0.0
 30
0.0
  3
*U18
  1

  0
TEXT
  5
2D6D
  8
RAHM2
 10
-123.3541228057275
 20
36.250000000000028
 30
0.0
 40
2.5
  1
・  ・   
  0
ENDBLK
  5
2D6F
  8
0
  0
BLOCK
  8
0
  2
*U19
 70
     1
 10
0.0
 20
0.0
 30
0.0
  3
*U19
  1

  0
TEXT
  5
2D71
  8
RAHM2
 10
-123.3541228057275
 20
46.250000000000021
 30
0.0
 40
2.5
  1
・  ・   
  0
ENDBLK
  5
2D73
  8
0
  0
BLOCK
  8
0
  2
*U20
 70
     1
 10
0.0
 20
0.0
 30
0.0
  3
*U20
  1

  0
TEXT
  5
2D75
  8
RAHM2
 10
-92.800255137131444
 20
13.80103540727964
 30
0.0
 40
2.5
  1
日付
  0
ENDBLK
  5
2D77
  8
0
  0
BLOCK
  8
0
  2
*U21
 70
     1
 10
0.0
 20
0.0
 30
0.0
  3
*U21
  1

  0
TEXT
  5
2D79
  8
RAHM2
 10
-92.800255137131444
 20
23.801035407279642
 30
0.0
 40
2.5
  1
表面処理
  0
ENDBLK
  5
2D7B
  8
0
  0
BLOCK
  8
0
  2
*U22
 70
     1
 10
0.0
 20
0.0
 30
0.0
  3
*U22
  1

  0
TEXT
  5
2D7D
  8
RAHM2
 10
-92.800255137131444
 20
33.801035407279642
 30
0.0
 40
2.5
  1
材質
  0
ENDBLK
  5
2D7F
  8
0
  0
BLOCK
  8
0
  2
*U23
 70
     1
 10
0.0
 20
0.0
 30
0.0
  3
*U23
  1

  0
TEXT
  5
2D81
  8
RAHM2
 10
-72.800255137131444
 20
46.301035407279642
 30
0.0
 40
2.5
  1
尺度
  0
ENDBLK
  5
2D83
  8
0
  0
BLOCK
  8
0
  2
*U24
 70
     1
 10
0.0
 20
0.0
 30
0.0
  3
*U24
  1

  0
TEXT
  5
2D85
  8
RAHM2
 10
-52.800255137131451
 20
46.301035407279642
 30
0.0
 40
2.5
  1
数量
  0
ENDBLK
  5
2D87
  8
0
  0
BLOCK
  8
0
  2
*U25
 70
     1
 10
0.0
 20
0.0
 30
0.0
  3
*U25
  1

  0
TEXT
  5
2D89
  8
RAHM2
 10
-28.3125
 20
21.301035407279642
 30
0.0
 40
2.5
  1
承認
  0
ENDBLK
  5
2D8B
  8
0
  0
BLOCK
  8
0
  2
*U26
 70
     1
 10
0.0
 20
0.0
 30
0.0
  3
*U26
  1

  0
TEXT
  5
2D8D
  8
RAHM2
 10
-28.3125
 20
46.301035407279642
 30
0.0
 40
2.5
  1
承認
  0
ENDBLK
  5
2D8F
  8
0
  0
BLOCK
  8
0
  2
*U27
 70
     1
 10
0.0
 20
0.0
 30
0.0
  3
*U27
  1

  0
TEXT
  5
2D91
  8
RAHM2
 10
-123.3541228057275
 20
26.250000000000028
 30
0.0
 40
2.5
  1
・  ・   
  0
ENDBLK
  5
2D93
  8
0
  0
BLOCK
  8
0
  2
*U28
 70
     1
 10
0.0
 20
0.0
 30
0.0
  3
*U28
  1

  0
TEXT
  5
2D95
  8
RAHM2
 10
-11.3125
 20
46.301035407279642
 30
0.0
 40
2.5
  1
検図
  0
ENDBLK
  5
2D97
  8
0
  0
BLOCK
  8
0
  2
*U29
 70
     1
 10
0.0
 20
0.0
 30
0.0
  3
*U29
  1

  0
TEXT
  5
2D99
  8
RAHM2
 10
-11.3125
 20
21.301035407279642
 30
0.0
 40
2.5
  1
製図
  0
ENDBLK
  5
2D9B
  8
0
  0
BLOCK
  8
0
  2
*U30
 70
     1
 10
0.0
 20
0.0
 30
0.0
  3
*U30
  1

  0
TEXT
  5
2D9D
  8
AM_5
 62
     7
 10
498.08931956611349
 20
380.350796627026
 30
0.0
 40
10.0
  1
1
  7
ACISOTS
  0
ENDBLK
  5
2D9F
  8
0
  0
BLOCK
  8
0
  2
*U31
 70
     1
 10
0.0
 20
0.0
 30
0.0
  3
*U31
  1

  0
TEXT
  5
2DA1
  8
0
 62
     2
 10
443.25
 20
127.34999999999999
 30
0.0
 40
7.0
  1
1
  7
ACISOTS
  0
ENDBLK
  5
2DA3
  8
0
  0
BLOCK
  8
0
  2
*U32
 70
     1
 10
0.0
 20
0.0
 30
0.0
  3
*U32
  1

  0
TEXT
  5
2DA5
  8
0
 62
     2
 10
460.74999999999989
 20
127.34999999999999
 30
0.0
 40
7.0
  1
Zレール
  7
ACISOTS
  0
ENDBLK
  5
2DA7
  8
0
  0
BLOCK
  8
0
  2
*U33
 70
     1
 10
0.0
 20
0.0
 30
0.0
  3
*U33
  1

  0
TEXT
  5
2DA9
  8
0
 62
     2
 10
560.74999999999989
 20
127.34999999999999
 30
0.0
 40
7.0
  1
1
  7
ACISOTS
  0
ENDBLK
  5
2DAB
  8
0
  0
BLOCK
  8
0
  2
*U34
 70
     1
 10
0.0
 20
0.0
 30
0.0
  3
*U34
  1

  0
TEXT
  5
2DAD
  8
0
 62
     2
 10
591.79999999999995
 20
127.34999999999999
 30
0.0
 40
7.0
  1
アルミ押出材
  7
ACISOTS
  0
ENDBLK
  5
2DAF
  8
0
  0
BLOCK
  8
0
  2
*U35
 70
     1
 10
0.0
 20
0.0
 30
0.0
  3
*U35
  1

  0
TEXT
  5
2DB1
  8
0
 62
     2
 10
701.79999999999995
 20
127.34999999999999
 30
0.0
 40
7.0
  1
クリアーアロジン
  7
ACISOTS
  0
ENDBLK
  5
2DB3
  8
0
  0
BLOCK
  8
0
  2
*U36
 70
     1
 10
0.0
 20
0.0
 30
0.0
  3
*U36
  1

  0
TEXT
  5
2DB5
  8
0
 62
     2
 10
437.30000000000001
 20
115.0
 30
0.0
 40
7.0
  1
照番
  7
ACISOTS
  0
ENDBLK
  5
2DB7
  8
0
  0
BLOCK
  8
0
  2
*U37
 70
     1
 10
0.0
 20
0.0
 30
0.0
  3
*U37
  1

  0
TEXT
  5
2DB9
  8
0
 62
     2
 10
502.30000000000001
 20
115.0
 30
0.0
 40
7.0
  1
名称
  7
ACISOTS
  0
ENDBLK
  5
2DBB
  8
0
  0
BLOCK
  8
0
  2
*U38
 70
     1
 10
0.0
 20
0.0
 30
0.0
  3
*U38
  1

  0
TEXT
  5
2DBD
  8
0
 62
     2
 10
566.60000000000002
 20
115.0
 30
0.0
 40
7.0
  1
個数
  7
ACISOTS
  0
ENDBLK
  5
2DBF
  8
0
  0
BLOCK
  8
0
  2
*U39
 70
     1
 10
0.0
 20
0.0
 30
0.0
  3
*U39
  1

  0
TEXT
  5
2DC1
  8
0
 62
     2
 10
637.29999999999995
 20
115.0
 30
0.0
 40
7.0
  1
材質
  7
ACISOTS
  0
ENDBLK
  5
2DC3
  8
0
  0
BLOCK
  8
0
  2
*U40
 70
     1
 10
0.0
 20
0.0
 30
0.0
  3
*U40
  1

  0
TEXT
  5
2DC5
  8
0
 62
     2
 10
734.79999999999995
 20
115.0
 30
0.0
 40
7.0
  1
色・表面処理
  7
ACISOTS
  0
ENDBLK
  5
2DC7
  8
0
  0
BLOCK
  8
0
  2
*U41
 70
     1
 10
0.0
 20
0.0
 30
0.0
  3
*U41
  1

  0
TEXT
  5
2DC9
  8
0
 62
     2
 10
596.12499999999989
 20
102.675
 30
0.0
 40
7.0
  1
構　成　内　容
  7
ACISOTS
  0
ENDBLK
  5
2DCB
  8
0
  0
ENDSEC
  0
SECTION
  2
ENTITIES
  0
INSERT
  5
659
  8
0
  2
TAKACHI-A3
 10
0.0
 20
0.0
 30
0.0
 41
2.0
 42
2.0
 43
2.0
1001
GENIUS_GENOREF_13
1005
665
1001
GENIUS_GENODEF_13
1002
{
1000
HIER
1070
     0
1002
}
1002
{
1000
MANEDIT
1070
     0
1002
}
1002
{
1000
NOSEL
1070
     0
1002
}
1002
{
1000
BEHIND
1070
     0
1002
}
1002
{
1000
OTHER
1070
     0
1002
}
1002
{
1000
REACTOR
1002
}
1001
GENIUS_GENOBJ-N-SDF_13
1002
{
1000
OWNER
1000
GEN
1002
}
1001
GENIUS_GENSCREG_13
1040
2.0
1040
1.0
1011
0.0
1021
0.0
1031
0.0
1021
0.0
1031
0.0
1011
800.0
1021
0.0
1031
0.0
1021
560.0
1031
0.0
1070
     5
  0
INSERT
  5
65B
  8
0
 66
     1
  2
TAKACHI-TITLE
 10
820.0
 20
0.0
 30
0.0
 41
2.0
 42
2.0
 43
2.0
1001
GENIUS_GENOREF_13
1005
665
  0
ATTRIB
  5
BD1
  8
0
 10
453.51229457087851
 20
17.901701048856161
 30
0.0
 40
5.0
  1

 11
453.51229457087851
 21
17.2350343821895
 31
0.0
  2
GEN-TITLE-DES2
 70
     0
 74
     1
  0
ATTRIB
  5
BD2
  8
0
 10
453.51229457087851
 20
4.0350343821894956
 30
0.0
 40
6.0
  1

 11
453.51229457087851
 21
3.2350343821894958
 31
0.0
  2
GEN-TITLE-NR
 70
     0
 74
     1
  0
ATTRIB
  5
BD3
  8
0
 10
453.51229457087851
 20
28.814572390036691
 30
0.0
 40
8.0
  1
FZR-43
 11
453.51229457087851
 21
27.747905723370021
 31
0.0
  2
GEN-TITLE-DES1
 70
     0
 74
     1
  0
ATTRIB
  5
BD4
  8
0
 10
695.51154327329641
 20
78.510011123566983
 30
0.0
 40
6.0
  1
1:2
 72
     2
 11
703.97189760400511
 21
78.510011123566983
 31
0.0
  2
GEN-TITLE-SCA
 70
     0
  0
ATTRIB
  5
BD5
  8
0
 10
665.99430066701984
 20
62.043615758869507
 30
0.0
 40
6.0
  1

 11
665.99430066701984
 21
61.243615758869502
 31
0.0
  2
GEN-TITLE-MAT1
 70
     0
 74
     1
  0
ATTRIB
  5
BD6
  8
0
 10
665.99430066701984
 20
42.043615758869507
 30
0.0
 40
6.0
  1

 11
665.99430066701984
 21
41.243615758869502
 31
0.0
  2
GEN-TITLE-MAT2
 70
     0
 74
     1
  0
ATTRIB
  5
BD7
  8
0
 10
665.99430066701984
 20
24.035034382189501
 30
0.0
 40
6.0
  1
2006/11/24
 11
665.99430066701984
 21
23.2350343821895
 31
0.0
  2
GEN-TITLE-DAT
 70
     0
 74
     1
  0
ATTRIB
  5
BD8
  8
0
 10
744.47365241216994
 20
78.510011123566983
 30
0.0
 40
6.0
  1

 72
     2
 11
744.47365241216994
 21
78.510011123566983
 31
0.0
  2
GEN-TITLE-QTY
 70
     0
  0
SEQEND
  5
BD0
  8
0
  0
POINT
  5
665
  8
0
 10
0.0
 20
0.0
 30
0.0
1001
GENIUS_GENOENT_13
1002
{
1000
MYREF
1005
665
1002
}
1002
{
1000
GRP
1005
0
1002
}
1001
GENIUS_GENOBJ-N-TIT_13
1002
{
1000
OWNER
1000
GEN
1002
}
1001
GENIUS_GENODEF_13
1002
{
1000
HIER
1070
     1
1002
}
1002
{
1000
MANEDIT
1070
     0
1002
}
1002
{
1000
NOSEL
1070
     0
1002
}
1002
{
1000
BEHIND
1070
     0
1002
}
1002
{
1000
OTHER
1070
     0
1002
}
1002
{
1000
REACTOR
1002
}
1001
GENIUS_GENOLIS_13
1002
{
1000
ENT
1005
65B
1005
659
1005
BCF
1002
}
1001
GENIUS_GENTITLE_13
1002
{
1000
BORDER
1000
TAKACHI-A3
1002
}
1002
{
1000
TITLE
1000
TAKACHI-TITLE
1002
}
1002
{
1000
SCALE
1000
1:2
1002
}
1002
{
1000
TITLESTD
1000
ISO
1002
}
1002
{
1000
HRA
1005
659
1002
}
1002
{
1000
HTIT
1005
65B
1002
}
1002
{
1000
GENIUSID
1005
665
1002
}
1002
{
1000
UNCHG
1002
{
1000
GEN-TITLE-SIZ
1000
GEN-TITLE-SCA
1002
}
1002
}
  0
INSERT
  5
D16
  8
AM_12
  2
*S6
 10
0.0
 20
0.0
 30
0.0
  0
INSERT
  5
D1B
  8
AM_5
  2
*S7
 10
0.0
 20
0.0
 30
0.0
  0
INSERT
  5
D1C
  8
0
  2
*S8
 10
0.0
 20
0.0
 30
0.0
  0
LINE
  5
198E
  8
0
 10
243.449290684473
 20
251.04846993147891
 30
0.0
 11
459.34929068447298
 21
251.04846993147891
 31
0.0
  0
LINE
  5
1990
  8
0
 10
243.449290684473
 20
242.04846993147891
 30
0.0
 11
459.34929068447309
 21
242.04846993147891
 31
0.0
  0
LINE
  5
1991
  8
0
 10
243.44929068447331
 20
228.84846993147889
 30
0.0
 11
459.34929068447337
 21
228.84846993147889
 31
0.0
  0
LINE
  5
1992
  8
0
 10
243.44929068447291
 20
251.04846993147891
 30
0.0
 11
243.449290684473
 21
249.14846993147879
 31
0.0
  0
CIRCLE
  5
2154
  8
0
 10
248.5292906844729
 20
231.29846993147879
 30
0.0
 40
1.25
  0
CIRCLE
  5
2158
  8
TK10
 10
248.5292906844729
 20
231.29846993147879
 30
0.0
 40
1.0
  0
CIRCLE
  5
215D
  8
0
 10
253.60929068447291
 20
231.29846993147879
 30
0.0
 40
1.25
  0
CIRCLE
  5
215E
  8
TK10
 10
253.60929068447291
 20
231.29846993147879
 30
0.0
 40
1.0
  0
CIRCLE
  5
2164
  8
0
 10
258.68929068447289
 20
231.29846993147879
 30
0.0
 40
1.25
  0
CIRCLE
  5
2165
  8
TK10
 10
258.68929068447289
 20
231.29846993147879
 30
0.0
 40
1.0
  0
CIRCLE
  5
216B
  8
0
 10
263.76929068447288
 20
231.29846993147879
 30
0.0
 40
1.25
  0
CIRCLE
  5
216C
  8
TK10
 10
263.76929068447288
 20
231.29846993147879
 30
0.0
 40
1.0
  0
CIRCLE
  5
2172
  8
0
 10
268.84929068447292
 20
231.29846993147879
 30
0.0
 40
1.25
  0
CIRCLE
  5
2173
  8
TK10
 10
268.84929068447292
 20
231.29846993147879
 30
0.0
 40
1.0
  0
CIRCLE
  5
2179
  8
0
 10
273.92929068447279
 20
231.29846993147879
 30
0.0
 40
1.25
  0
CIRCLE
  5
217A
  8
TK10
 10
273.92929068447279
 20
231.29846993147879
 30
0.0
 40
1.0
  0
CIRCLE
  5
2180
  8
0
 10
279.00929068447289
 20
231.29846993147879
 30
0.0
 40
1.25
  0
CIRCLE
  5
2181
  8
TK10
 10
279.00929068447289
 20
231.29846993147879
 30
0.0
 40
1.0
  0
CIRCLE
  5
2187
  8
0
 10
284.08929068447293
 20
231.29846993147879
 30
0.0
 40
1.25
  0
CIRCLE
  5
2188
  8
TK10
 10
284.08929068447293
 20
231.29846993147879
 30
0.0
 40
1.0
  0
CIRCLE
  5
218E
  8
0
 10
289.16929068447291
 20
231.29846993147879
 30
0.0
 40
1.25
  0
CIRCLE
  5
218F
  8
TK10
 10
289.16929068447291
 20
231.29846993147879
 30
0.0
 40
1.0
  0
CIRCLE
  5
2195
  8
0
 10
294.24929068447278
 20
231.29846993147879
 30
0.0
 40
1.25
  0
CIRCLE
  5
2196
  8
TK10
 10
294.24929068447278
 20
231.29846993147879
 30
0.0
 40
1.0
  0
CIRCLE
  5
219C
  8
0
 10
299.32929068447288
 20
231.29846993147879
 30
0.0
 40
1.25
  0
CIRCLE
  5
219D
  8
TK10
 10
299.32929068447288
 20
231.29846993147879
 30
0.0
 40
1.0
  0
CIRCLE
  5
21A3
  8
0
 10
304.40929068447292
 20
231.29846993147879
 30
0.0
 40
1.25
  0
CIRCLE
  5
21A4
  8
TK10
 10
304.40929068447292
 20
231.29846993147879
 30
0.0
 40
1.0
  0
CIRCLE
  5
21AA
  8
0
 10
309.48929068447279
 20
231.29846993147879
 30
0.0
 40
1.25
  0
CIRCLE
  5
21AB
  8
TK10
 10
309.48929068447279
 20
231.29846993147879
 30
0.0
 40
1.0
  0
CIRCLE
  5
21B1
  8
0
 10
314.56929068447289
 20
231.29846993147879
 30
0.0
 40
1.25
  0
CIRCLE
  5
21B2
  8
TK10
 10
314.56929068447289
 20
231.29846993147879
 30
0.0
 40
1.0
  0
CIRCLE
  5
21B8
  8
0
 10
319.64929068447287
 20
231.29846993147879
 30
0.0
 40
1.25
  0
CIRCLE
  5
21B9
  8
TK10
 10
319.64929068447287
 20
231.29846993147879
 30
0.0
 40
1.0
  0
CIRCLE
  5
21BF
  8
0
 10
324.7292906844728
 20
231.29846993147879
 30
0.0
 40
1.25
  0
CIRCLE
  5
21C0
  8
TK10
 10
324.7292906844728
 20
231.29846993147879
 30
0.0
 40
1.0
  0
CIRCLE
  5
21C6
  8
0
 10
329.8092906844729
 20
231.29846993147879
 30
0.0
 40
1.25
  0
CIRCLE
  5
21C7
  8
TK10
 10
329.8092906844729
 20
231.29846993147879
 30
0.0
 40
1.0
  0
CIRCLE
  5
21CD
  8
0
 10
334.88929068447288
 20
231.29846993147879
 30
0.0
 40
1.25
  0
CIRCLE
  5
21CE
  8
TK10
 10
334.88929068447288
 20
231.29846993147879
 30
0.0
 40
1.0
  0
CIRCLE
  5
21D4
  8
0
 10
339.96929068447292
 20
231.29846993147879
 30
0.0
 40
1.25
  0
CIRCLE
  5
21D5
  8
TK10
 10
339.96929068447292
 20
231.29846993147879
 30
0.0
 40
1.0
  0
CIRCLE
  5
21DB
  8
0
 10
345.04929068447291
 20
231.29846993147879
 30
0.0
 40
1.25
  0
CIRCLE
  5
21DC
  8
TK10
 10
345.04929068447291
 20
231.29846993147879
 30
0.0
 40
1.0
  0
CIRCLE
  5
21E2
  8
0
 10
350.12929068447278
 20
231.29846993147879
 30
0.0
 40
1.25
  0
CIRCLE
  5
21E3
  8
TK10
 10
350.12929068447278
 20
231.29846993147879
 30
0.0
 40
1.0
  0
CIRCLE
  5
21E9
  8
0
 10
355.20929068447288
 20
231.29846993147879
 30
0.0
 40
1.25
  0
CIRCLE
  5
21EA
  8
TK10
 10
355.20929068447288
 20
231.29846993147879
 30
0.0
 40
1.0
  0
CIRCLE
  5
21F0
  8
0
 10
360.28929068447292
 20
231.29846993147879
 30
0.0
 40
1.25
  0
CIRCLE
  5
21F1
  8
TK10
 10
360.28929068447292
 20
231.29846993147879
 30
0.0
 40
1.0
  0
CIRCLE
  5
21F7
  8
0
 10
365.3692906844729
 20
231.29846993147879
 30
0.0
 40
1.25
  0
CIRCLE
  5
21F8
  8
TK10
 10
365.3692906844729
 20
231.29846993147879
 30
0.0
 40
1.0
  0
CIRCLE
  5
21FE
  8
0
 10
370.44929068447289
 20
231.29846993147879
 30
0.0
 40
1.25
  0
CIRCLE
  5
21FF
  8
TK10
 10
370.44929068447289
 20
231.29846993147879
 30
0.0
 40
1.0
  0
CIRCLE
  5
2205
  8
0
 10
375.52929068447293
 20
231.29846993147879
 30
0.0
 40
1.25
  0
CIRCLE
  5
2206
  8
TK10
 10
375.52929068447293
 20
231.29846993147879
 30
0.0
 40
1.0
  0
CIRCLE
  5
220C
  8
0
 10
380.60929068447291
 20
231.29846993147879
 30
0.0
 40
1.25
  0
CIRCLE
  5
220D
  8
TK10
 10
380.60929068447291
 20
231.29846993147879
 30
0.0
 40
1.0
  0
CIRCLE
  5
2213
  8
0
 10
385.68929068447289
 20
231.29846993147879
 30
0.0
 40
1.25
  0
CIRCLE
  5
2214
  8
TK10
 10
385.68929068447289
 20
231.29846993147879
 30
0.0
 40
1.0
  0
CIRCLE
  5
221A
  8
0
 10
390.76929068447288
 20
231.29846993147879
 30
0.0
 40
1.25
  0
CIRCLE
  5
221B
  8
TK10
 10
390.76929068447288
 20
231.29846993147879
 30
0.0
 40
1.0
  0
CIRCLE
  5
2221
  8
0
 10
395.84929068447292
 20
231.29846993147879
 30
0.0
 40
1.25
  0
CIRCLE
  5
2222
  8
TK10
 10
395.84929068447292
 20
231.29846993147879
 30
0.0
 40
1.0
  0
CIRCLE
  5
2228
  8
0
 10
400.9292906844729
 20
231.29846993147879
 30
0.0
 40
1.25
  0
CIRCLE
  5
2229
  8
TK10
 10
400.9292906844729
 20
231.29846993147879
 30
0.0
 40
1.0
  0
CIRCLE
  5
222F
  8
0
 10
406.00929068447277
 20
231.29846993147879
 30
0.0
 40
1.25
  0
CIRCLE
  5
2230
  8
TK10
 10
406.00929068447277
 20
231.29846993147879
 30
0.0
 40
1.0
  0
CIRCLE
  5
2236
  8
0
 10
411.08929068447281
 20
231.29846993147879
 30
0.0
 40
1.25
  0
CIRCLE
  5
2237
  8
TK10
 10
411.08929068447281
 20
231.29846993147879
 30
0.0
 40
1.0
  0
CIRCLE
  5
223D
  8
0
 10
416.16929068447291
 20
231.29846993147879
 30
0.0
 40
1.25
  0
CIRCLE
  5
223E
  8
TK10
 10
416.16929068447291
 20
231.29846993147879
 30
0.0
 40
1.0
  0
CIRCLE
  5
2244
  8
0
 10
421.24929068447278
 20
231.29846993147879
 30
0.0
 40
1.25
  0
CIRCLE
  5
2245
  8
TK10
 10
421.24929068447278
 20
231.29846993147879
 30
0.0
 40
1.0
  0
CIRCLE
  5
224B
  8
0
 10
426.32929068447282
 20
231.29846993147879
 30
0.0
 40
1.25
  0
CIRCLE
  5
224C
  8
TK10
 10
426.32929068447282
 20
231.29846993147879
 30
0.0
 40
1.0
  0
CIRCLE
  5
2252
  8
0
 10
431.40929068447281
 20
231.29846993147879
 30
0.0
 40
1.25
  0
CIRCLE
  5
2253
  8
TK10
 10
431.40929068447281
 20
231.29846993147879
 30
0.0
 40
1.0
  0
CIRCLE
  5
2259
  8
0
 10
436.48929068447279
 20
231.29846993147879
 30
0.0
 40
1.25
  0
CIRCLE
  5
225A
  8
TK10
 10
436.48929068447279
 20
231.29846993147879
 30
0.0
 40
1.0
  0
CIRCLE
  5
2260
  8
0
 10
441.56929068447289
 20
231.29846993147879
 30
0.0
 40
1.25
  0
CIRCLE
  5
2261
  8
TK10
 10
441.56929068447289
 20
231.29846993147879
 30
0.0
 40
1.0
  0
CIRCLE
  5
2267
  8
0
 10
446.64929068447282
 20
231.29846993147879
 30
0.0
 40
1.25
  0
CIRCLE
  5
2268
  8
TK10
 10
446.64929068447282
 20
231.29846993147879
 30
0.0
 40
1.0
  0
CIRCLE
  5
226E
  8
0
 10
451.7292906844728
 20
231.29846993147879
 30
0.0
 40
1.25
  0
CIRCLE
  5
226F
  8
TK10
 10
451.7292906844728
 20
231.29846993147879
 30
0.0
 40
1.0
  0
CIRCLE
  5
2275
  8
0
 10
456.8092906844729
 20
231.29846993147879
 30
0.0
 40
1.25
  0
CIRCLE
  5
2276
  8
TK10
 10
456.8092906844729
 20
231.29846993147879
 30
0.0
 40
1.0
  0
ARC
  5
22F8
  8
0
 10
243.4492906844734
 20
231.29846993147859
 30
0.0
 40
1.25
 50
270.00000000000131
 51
90.000000000001293
  0
ARC
  5
22F9
  8
TK10
 10
243.4492906844734
 20
231.29846993147859
 30
0.0
 40
1.0
 50
270.00000000000171
 51
90.000000000001606
  0
LINE
  5
22FF
  8
0
 10
243.44929068447351
 20
230.29846993147859
 30
0.0
 11
243.44929068447351
 21
228.84846993147889
 31
0.0
  0
LINE
  5
2751
  8
TK1
 10
157.37171667624119
 20
251.04846993147891
 30
0.0
 11
159.87171667624119
 21
251.04846993147891
 31
0.0
  0
LINE
  5
2753
  8
TK1
 10
160.37171667624119
 20
239.54846993147891
 30
0.0
 11
160.37171667624119
 21
239.54846993147891
 31
0.0
  0
LINE
  5
2754
  8
TK1
 10
162.87171667624119
 20
239.54846993147891
 30
0.0
 11
162.87171667624119
 21
228.84846993147889
 31
0.0
  0
LINE
  5
2755
  8
TK1
 10
162.87171667624119
 20
228.84846993147889
 30
0.0
 11
160.37171667624119
 21
228.84846993147889
 31
0.0
  0
LINE
  5
2756
  8
TK1
 10
157.37171667624119
 20
251.04846993147891
 30
0.0
 11
157.37171667624119
 21
239.54846993147891
 31
0.0
  0
LINE
  5
2757
  8
TK1
 10
157.37171667624119
 20
239.54846993147891
 30
0.0
 11
160.37171667624119
 21
239.54846993147891
 31
0.0
  0
LINE
  5
2758
  8
TK1
 10
160.37171667624119
 20
239.54846993147891
 30
0.0
 11
160.37171667624119
 21
228.84846993147889
 31
0.0
  0
LINE
  5
276F
  8
TK1
 10
159.87171667624119
 20
242.04846993147891
 30
0.0
 11
162.87171667624119
 21
242.04846993147891
 31
0.0
  0
LINE
  5
2770
  8
TK1
 10
162.87171667624119
 20
242.04846993147891
 30
0.0
 11
162.87171667624119
 21
239.54846993147891
 31
0.0
  0
LINE
  5
2772
  8
TK1
 10
159.87171667624119
 20
251.04846993147891
 30
0.0
 11
159.87171667624119
 21
242.04846993147891
 31
0.0
  0
CIRCLE
  5
280C
  8
TK1
 10
248.5292906844729
 20
247.54846993147891
 30
0.0
 40
1.6000000000000001
  0
CIRCLE
  5
28CE
  8
TK1
 10
253.60929068447291
 20
247.54846993147891
 30
0.0
 40
1.6000000000000001
  0
CIRCLE
  5
28D4
  8
TK1
 10
258.68929068447289
 20
247.54846993147891
 30
0.0
 40
1.6000000000000001
  0
CIRCLE
  5
28DA
  8
TK1
 10
263.76929068447288
 20
247.54846993147891
 30
0.0
 40
1.6000000000000001
  0
CIRCLE
  5
28E0
  8
TK1
 10
268.84929068447292
 20
247.54846993147891
 30
0.0
 40
1.6000000000000001
  0
CIRCLE
  5
28E6
  8
TK1
 10
273.92929068447279
 20
247.54846993147891
 30
0.0
 40
1.6000000000000001
  0
CIRCLE
  5
28EC
  8
TK1
 10
279.00929068447289
 20
247.54846993147891
 30
0.0
 40
1.6000000000000001
  0
CIRCLE
  5
28F2
  8
TK1
 10
284.08929068447293
 20
247.54846993147891
 30
0.0
 40
1.6000000000000001
  0
CIRCLE
  5
28F8
  8
TK1
 10
289.16929068447291
 20
247.54846993147891
 30
0.0
 40
1.6000000000000001
  0
CIRCLE
  5
28FE
  8
TK1
 10
294.24929068447278
 20
247.54846993147891
 30
0.0
 40
1.6000000000000001
  0
CIRCLE
  5
2904
  8
TK1
 10
299.32929068447288
 20
247.54846993147891
 30
0.0
 40
1.6000000000000001
  0
CIRCLE
  5
290A
  8
TK1
 10
304.40929068447292
 20
247.54846993147891
 30
0.0
 40
1.6000000000000001
  0
CIRCLE
  5
2910
  8
TK1
 10
309.48929068447279
 20
247.54846993147891
 30
0.0
 40
1.6000000000000001
  0
CIRCLE
  5
2916
  8
TK1
 10
314.56929068447289
 20
247.54846993147891
 30
0.0
 40
1.6000000000000001
  0
CIRCLE
  5
291C
  8
TK1
 10
319.64929068447287
 20
247.54846993147891
 30
0.0
 40
1.6000000000000001
  0
CIRCLE
  5
2922
  8
TK1
 10
324.7292906844728
 20
247.54846993147891
 30
0.0
 40
1.6000000000000001
  0
CIRCLE
  5
2928
  8
TK1
 10
329.8092906844729
 20
247.54846993147891
 30
0.0
 40
1.6000000000000001
  0
CIRCLE
  5
292E
  8
TK1
 10
334.88929068447288
 20
247.54846993147891
 30
0.0
 40
1.6000000000000001
  0
CIRCLE
  5
2934
  8
TK1
 10
339.96929068447292
 20
247.54846993147891
 30
0.0
 40
1.6000000000000001
  0
CIRCLE
  5
293A
  8
TK1
 10
345.04929068447291
 20
247.54846993147891
 30
0.0
 40
1.6000000000000001
  0
CIRCLE
  5
2940
  8
TK1
 10
350.12929068447278
 20
247.54846993147891
 30
0.0
 40
1.6000000000000001
  0
CIRCLE
  5
2946
  8
TK1
 10
355.20929068447288
 20
247.54846993147891
 30
0.0
 40
1.6000000000000001
  0
CIRCLE
  5
294C
  8
TK1
 10
360.28929068447292
 20
247.54846993147891
 30
0.0
 40
1.6000000000000001
  0
CIRCLE
  5
2952
  8
TK1
 10
365.3692906844729
 20
247.54846993147891
 30
0.0
 40
1.6000000000000001
  0
CIRCLE
  5
2958
  8
TK1
 10
370.44929068447289
 20
247.54846993147891
 30
0.0
 40
1.6000000000000001
  0
CIRCLE
  5
295E
  8
TK1
 10
375.52929068447293
 20
247.54846993147891
 30
0.0
 40
1.6000000000000001
  0
CIRCLE
  5
2964
  8
TK1
 10
380.60929068447291
 20
247.54846993147891
 30
0.0
 40
1.6000000000000001
  0
CIRCLE
  5
296A
  8
TK1
 10
385.68929068447289
 20
247.54846993147891
 30
0.0
 40
1.6000000000000001
  0
CIRCLE
  5
2970
  8
TK1
 10
390.76929068447288
 20
247.54846993147891
 30
0.0
 40
1.6000000000000001
  0
CIRCLE
  5
2976
  8
TK1
 10
395.84929068447292
 20
247.54846993147891
 30
0.0
 40
1.6000000000000001
  0
CIRCLE
  5
297C
  8
TK1
 10
400.9292906844729
 20
247.54846993147891
 30
0.0
 40
1.6000000000000001
  0
CIRCLE
  5
2982
  8
TK1
 10
406.00929068447277
 20
247.54846993147891
 30
0.0
 40
1.6000000000000001
  0
CIRCLE
  5
2988
  8
TK1
 10
411.08929068447281
 20
247.54846993147891
 30
0.0
 40
1.6000000000000001
  0
CIRCLE
  5
298E
  8
TK1
 10
416.16929068447291
 20
247.54846993147891
 30
0.0
 40
1.6000000000000001
  0
CIRCLE
  5
2994
  8
TK1
 10
421.24929068447278
 20
247.54846993147891
 30
0.0
 40
1.6000000000000001
  0
CIRCLE
  5
299A
  8
TK1
 10
426.32929068447282
 20
247.54846993147891
 30
0.0
 40
1.6000000000000001
  0
CIRCLE
  5
29A0
  8
TK1
 10
431.40929068447281
 20
247.54846993147891
 30
0.0
 40
1.6000000000000001
  0
CIRCLE
  5
29A6
  8
TK1
 10
436.48929068447279
 20
247.54846993147891
 30
0.0
 40
1.6000000000000001
  0
CIRCLE
  5
29AC
  8
TK1
 10
441.56929068447289
 20
247.54846993147891
 30
0.0
 40
1.6000000000000001
  0
CIRCLE
  5
29B2
  8
TK1
 10
446.64929068447282
 20
247.54846993147891
 30
0.0
 40
1.6000000000000001
  0
CIRCLE
  5
29B8
  8
TK1
 10
451.7292906844728
 20
247.54846993147891
 30
0.0
 40
1.6000000000000001
  0
CIRCLE
  5
29BE
  8
TK1
 10
456.8092906844729
 20
247.54846993147891
 30
0.0
 40
1.6000000000000001
  0
LINE
  5
2A30
  8
TK1
 10
243.449290684473
 20
318.05582116952672
 30
0.0
 11
459.34929068447298
 21
318.05582116952672
 31
0.0
  0
LINE
  5
2A31
  8
TK1
 10
243.449290684473
 20
318.05582116952672
 30
0.0
 11
243.449290684473
 21
312.55582116952672
 31
0.0
  0
LINE
  5
2A32
  8
TK1
 10
243.449290684473
 20
312.55582116952672
 30
0.0
 11
459.34929068447298
 21
312.55582116952672
 31
0.0
  0
LINE
  5
2A33
  8
TK1
 10
243.449290684473
 20
315.55582116952672
 30
0.0
 11
459.34929068447298
 21
315.55582116952672
 31
0.0
  0
ARC
  5
2A38
  8
TK1
 10
243.449290684473
 20
247.54846993147879
 30
0.0
 40
1.6000000000000001
 50
270.00000000000313
 51
90.0
  0
LINE
  5
2A3D
  8
0
 10
243.449290684473
 20
245.9484699314788
 30
0.0
 11
243.4492906844734
 21
232.29846993147859
 31
0.0
  0
LINE
  5
2A40
  8
0
 10
675.24929068447307
 20
251.04846993147891
 30
0.0
 11
459.34929068447298
 21
251.04846993147891
 31
0.0
  0
LINE
  5
2A41
  8
0
 10
675.24929068447295
 20
242.04846993147891
 30
0.0
 11
459.34929068447292
 21
242.04846993147891
 31
0.0
  0
LINE
  5
2A42
  8
0
 10
675.24929068447273
 20
228.84846993147889
 30
0.0
 11
459.34929068447258
 21
228.84846993147889
 31
0.0
  0
LINE
  5
2A43
  8
0
 10
675.24929068447307
 20
251.04846993147891
 30
0.0
 11
675.24929068447307
 21
249.14846993147879
 31
0.0
  0
LINE
  5
2A44
  8
0
 10
675.24929068447295
 20
245.9484699314788
 30
0.0
 11
675.24929068447261
 21
232.29846993147859
 31
0.0
  0
LINE
  5
2A45
  8
0
 10
675.24929068447261
 20
230.29846993147859
 30
0.0
 11
675.24929068447238
 21
228.84846993147889
 31
0.0
  0
CIRCLE
  5
2A46
  8
0
 10
670.16929068447325
 20
231.29846993147879
 30
0.0
 40
1.25
  0
CIRCLE
  5
2A47
  8
TK10
 10
670.16929068447325
 20
231.29846993147879
 30
0.0
 40
1.0
  0
CIRCLE
  5
2A4C
  8
0
 10
665.08929068447321
 20
231.29846993147879
 30
0.0
 40
1.25
  0
CIRCLE
  5
2A4D
  8
TK10
 10
665.08929068447321
 20
231.29846993147879
 30
0.0
 40
1.0
  0
CIRCLE
  5
2A52
  8
0
 10
660.00929068447306
 20
231.29846993147879
 30
0.0
 40
1.25
  0
CIRCLE
  5
2A53
  8
TK10
 10
660.00929068447306
 20
231.29846993147879
 30
0.0
 40
1.0
  0
CIRCLE
  5
2A58
  8
0
 10
654.92929068447324
 20
231.29846993147879
 30
0.0
 40
1.25
  0
CIRCLE
  5
2A59
  8
TK10
 10
654.92929068447324
 20
231.29846993147879
 30
0.0
 40
1.0
  0
CIRCLE
  5
2A5E
  8
0
 10
649.8492906844732
 20
231.29846993147879
 30
0.0
 40
1.25
  0
CIRCLE
  5
2A5F
  8
TK10
 10
649.8492906844732
 20
231.29846993147879
 30
0.0
 40
1.0
  0
CIRCLE
  5
2A64
  8
0
 10
644.76929068447305
 20
231.29846993147879
 30
0.0
 40
1.25
  0
CIRCLE
  5
2A65
  8
TK10
 10
644.76929068447305
 20
231.29846993147879
 30
0.0
 40
1.0
  0
CIRCLE
  5
2A6A
  8
0
 10
639.68929068447324
 20
231.29846993147879
 30
0.0
 40
1.25
  0
CIRCLE
  5
2A6B
  8
TK10
 10
639.68929068447324
 20
231.29846993147879
 30
0.0
 40
1.0
  0
CIRCLE
  5
2A70
  8
0
 10
634.60929068447319
 20
231.29846993147879
 30
0.0
 40
1.25
  0
CIRCLE
  5
2A71
  8
TK10
 10
634.60929068447319
 20
231.29846993147879
 30
0.0
 40
1.0
  0
CIRCLE
  5
2A76
  8
0
 10
629.52929068447315
 20
231.29846993147879
 30
0.0
 40
1.25
  0
CIRCLE
  5
2A77
  8
TK10
 10
629.52929068447315
 20
231.29846993147879
 30
0.0
 40
1.0
  0
CIRCLE
  5
2A7C
  8
0
 10
624.44929068447323
 20
231.29846993147879
 30
0.0
 40
1.25
  0
CIRCLE
  5
2A7D
  8
TK10
 10
624.44929068447323
 20
231.29846993147879
 30
0.0
 40
1.0
  0
CIRCLE
  5
2A82
  8
0
 10
619.36929068447319
 20
231.29846993147879
 30
0.0
 40
1.25
  0
CIRCLE
  5
2A83
  8
TK10
 10
619.36929068447319
 20
231.29846993147879
 30
0.0
 40
1.0
  0
CIRCLE
  5
2A88
  8
0
 10
614.28929068447314
 20
231.29846993147879
 30
0.0
 40
1.25
  0
CIRCLE
  5
2A89
  8
TK10
 10
614.28929068447314
 20
231.29846993147879
 30
0.0
 40
1.0
  0
CIRCLE
  5
2A8E
  8
0
 10
609.20929068447322
 20
231.29846993147879
 30
0.0
 40
1.25
  0
CIRCLE
  5
2A8F
  8
TK10
 10
609.20929068447322
 20
231.29846993147879
 30
0.0
 40
1.0
  0
CIRCLE
  5
2A94
  8
0
 10
604.12929068447318
 20
231.29846993147879
 30
0.0
 40
1.25
  0
CIRCLE
  5
2A95
  8
TK10
 10
604.12929068447318
 20
231.29846993147879
 30
0.0
 40
1.0
  0
CIRCLE
  5
2A9A
  8
0
 10
599.04929068447314
 20
231.29846993147879
 30
0.0
 40
1.25
  0
CIRCLE
  5
2A9B
  8
TK10
 10
599.04929068447314
 20
231.29846993147879
 30
0.0
 40
1.0
  0
CIRCLE
  5
2AA0
  8
0
 10
593.96929068447321
 20
231.29846993147879
 30
0.0
 40
1.25
  0
CIRCLE
  5
2AA1
  8
TK10
 10
593.96929068447321
 20
231.29846993147879
 30
0.0
 40
1.0
  0
CIRCLE
  5
2AA6
  8
0
 10
588.88929068447305
 20
231.29846993147879
 30
0.0
 40
1.25
  0
CIRCLE
  5
2AA7
  8
TK10
 10
588.88929068447305
 20
231.29846993147879
 30
0.0
 40
1.0
  0
CIRCLE
  5
2AAC
  8
0
 10
583.80929068447313
 20
231.29846993147879
 30
0.0
 40
1.25
  0
CIRCLE
  5
2AAD
  8
TK10
 10
583.80929068447313
 20
231.29846993147879
 30
0.0
 40
1.0
  0
CIRCLE
  5
2AB2
  8
0
 10
578.7292906844732
 20
231.29846993147879
 30
0.0
 40
1.25
  0
CIRCLE
  5
2AB3
  8
TK10
 10
578.7292906844732
 20
231.29846993147879
 30
0.0
 40
1.0
  0
CIRCLE
  5
2AB8
  8
0
 10
573.64929068447316
 20
231.29846993147879
 30
0.0
 40
1.25
  0
CIRCLE
  5
2AB9
  8
TK10
 10
573.64929068447316
 20
231.29846993147879
 30
0.0
 40
1.0
  0
CIRCLE
  5
2ABE
  8
0
 10
568.56929068447323
 20
231.29846993147879
 30
0.0
 40
1.25
  0
CIRCLE
  5
2ABF
  8
TK10
 10
568.56929068447323
 20
231.29846993147879
 30
0.0
 40
1.0
  0
CIRCLE
  5
2AC4
  8
0
 10
563.48929068447319
 20
231.29846993147879
 30
0.0
 40
1.25
  0
CIRCLE
  5
2AC5
  8
TK10
 10
563.48929068447319
 20
231.29846993147879
 30
0.0
 40
1.0
  0
CIRCLE
  5
2ACA
  8
0
 10
558.40929068447315
 20
231.29846993147879
 30
0.0
 40
1.25
  0
CIRCLE
  5
2ACB
  8
TK10
 10
558.40929068447315
 20
231.29846993147879
 30
0.0
 40
1.0
  0
CIRCLE
  5
2AD0
  8
0
 10
553.32929068447322
 20
231.29846993147879
 30
0.0
 40
1.25
  0
CIRCLE
  5
2AD1
  8
TK10
 10
553.32929068447322
 20
231.29846993147879
 30
0.0
 40
1.0
  0
CIRCLE
  5
2AD6
  8
0
 10
548.24929068447318
 20
231.29846993147879
 30
0.0
 40
1.25
  0
CIRCLE
  5
2AD7
  8
TK10
 10
548.24929068447318
 20
231.29846993147879
 30
0.0
 40
1.0
  0
CIRCLE
  5
2ADC
  8
0
 10
543.16929068447325
 20
231.29846993147879
 30
0.0
 40
1.25
  0
CIRCLE
  5
2ADD
  8
TK10
 10
543.16929068447325
 20
231.29846993147879
 30
0.0
 40
1.0
  0
CIRCLE
  5
2AE2
  8
0
 10
538.0892906844731
 20
231.29846993147879
 30
0.0
 40
1.25
  0
CIRCLE
  5
2AE3
  8
TK10
 10
538.0892906844731
 20
231.29846993147879
 30
0.0
 40
1.0
  0
CIRCLE
  5
2AE8
  8
0
 10
533.00929068447317
 20
231.29846993147879
 30
0.0
 40
1.25
  0
CIRCLE
  5
2AE9
  8
TK10
 10
533.00929068447317
 20
231.29846993147879
 30
0.0
 40
1.0
  0
CIRCLE
  5
2AEE
  8
0
 10
527.92929068447324
 20
231.29846993147879
 30
0.0
 40
1.25
  0
CIRCLE
  5
2AEF
  8
TK10
 10
527.92929068447324
 20
231.29846993147879
 30
0.0
 40
1.0
  0
CIRCLE
  5
2AF4
  8
0
 10
522.84929068447309
 20
231.29846993147879
 30
0.0
 40
1.25
  0
CIRCLE
  5
2AF5
  8
TK10
 10
522.84929068447309
 20
231.29846993147879
 30
0.0
 40
1.0
  0
CIRCLE
  5
2AFA
  8
0
 10
517.76929068447316
 20
231.29846993147879
 30
0.0
 40
1.25
  0
CIRCLE
  5
2AFB
  8
TK10
 10
517.76929068447316
 20
231.29846993147879
 30
0.0
 40
1.0
  0
CIRCLE
  5
2B00
  8
0
 10
512.68929068447324
 20
231.29846993147879
 30
0.0
 40
1.25
  0
CIRCLE
  5
2B01
  8
TK10
 10
512.68929068447324
 20
231.29846993147879
 30
0.0
 40
1.0
  0
CIRCLE
  5
2B06
  8
0
 10
507.60929068447308
 20
231.29846993147879
 30
0.0
 40
1.25
  0
CIRCLE
  5
2B07
  8
TK10
 10
507.60929068447308
 20
231.29846993147879
 30
0.0
 40
1.0
  0
CIRCLE
  5
2B0C
  8
0
 10
502.52929068447321
 20
231.29846993147879
 30
0.0
 40
1.25
  0
CIRCLE
  5
2B0D
  8
TK10
 10
502.52929068447321
 20
231.29846993147879
 30
0.0
 40
1.0
  0
CIRCLE
  5
2B12
  8
0
 10
497.44929068447323
 20
231.29846993147879
 30
0.0
 40
1.25
  0
CIRCLE
  5
2B13
  8
TK10
 10
497.44929068447323
 20
231.29846993147879
 30
0.0
 40
1.0
  0
CIRCLE
  5
2B18
  8
0
 10
492.36929068447313
 20
231.29846993147879
 30
0.0
 40
1.25
  0
CIRCLE
  5
2B19
  8
TK10
 10
492.36929068447313
 20
231.29846993147879
 30
0.0
 40
1.0
  0
CIRCLE
  5
2B1E
  8
0
 10
487.28929068447309
 20
231.29846993147879
 30
0.0
 40
1.25
  0
CIRCLE
  5
2B1F
  8
TK10
 10
487.28929068447309
 20
231.29846993147879
 30
0.0
 40
1.0
  0
CIRCLE
  5
2B24
  8
0
 10
482.20929068447322
 20
231.29846993147879
 30
0.0
 40
1.25
  0
CIRCLE
  5
2B25
  8
TK10
 10
482.20929068447322
 20
231.29846993147879
 30
0.0
 40
1.0
  0
CIRCLE
  5
2B2A
  8
0
 10
477.12929068447312
 20
231.29846993147879
 30
0.0
 40
1.25
  0
CIRCLE
  5
2B2B
  8
TK10
 10
477.12929068447312
 20
231.29846993147879
 30
0.0
 40
1.0
  0
CIRCLE
  5
2B30
  8
0
 10
472.04929068447308
 20
231.29846993147879
 30
0.0
 40
1.25
  0
CIRCLE
  5
2B31
  8
TK10
 10
472.04929068447308
 20
231.29846993147879
 30
0.0
 40
1.0
  0
CIRCLE
  5
2B36
  8
0
 10
466.96929068447321
 20
231.29846993147879
 30
0.0
 40
1.25
  0
CIRCLE
  5
2B37
  8
TK10
 10
466.96929068447321
 20
231.29846993147879
 30
0.0
 40
1.0
  0
CIRCLE
  5
2B3C
  8
0
 10
461.88929068447311
 20
231.29846993147879
 30
0.0
 40
1.25
  0
CIRCLE
  5
2B3D
  8
TK10
 10
461.88929068447311
 20
231.29846993147879
 30
0.0
 40
1.0
  0
ARC
  5
2B3E
  8
0
 10
675.24929068447261
 20
231.29846993147859
 30
0.0
 40
1.25
 50
89.999999999998721
 51
269.99999999999869
  0
ARC
  5
2B3F
  8
TK10
 10
675.24929068447261
 20
231.29846993147859
 30
0.0
 40
1.0
 50
89.999999999998394
 51
269.99999999999841
  0
CIRCLE
  5
2B48
  8
TK1
 10
670.16929068447325
 20
247.54846993147891
 30
0.0
 40
1.6000000000000001
  0
CIRCLE
  5
2B4D
  8
TK1
 10
665.08929068447321
 20
247.54846993147891
 30
0.0
 40
1.6000000000000001
  0
CIRCLE
  5
2B52
  8
TK1
 10
660.00929068447306
 20
247.54846993147891
 30
0.0
 40
1.6000000000000001
  0
CIRCLE
  5
2B57
  8
TK1
 10
654.92929068447324
 20
247.54846993147891
 30
0.0
 40
1.6000000000000001
  0
CIRCLE
  5
2B5C
  8
TK1
 10
649.8492906844732
 20
247.54846993147891
 30
0.0
 40
1.6000000000000001
  0
CIRCLE
  5
2B61
  8
TK1
 10
644.76929068447305
 20
247.54846993147891
 30
0.0
 40
1.6000000000000001
  0
CIRCLE
  5
2B66
  8
TK1
 10
639.68929068447324
 20
247.54846993147891
 30
0.0
 40
1.6000000000000001
  0
CIRCLE
  5
2B6B
  8
TK1
 10
634.60929068447319
 20
247.54846993147891
 30
0.0
 40
1.6000000000000001
  0
CIRCLE
  5
2B70
  8
TK1
 10
629.52929068447315
 20
247.54846993147891
 30
0.0
 40
1.6000000000000001
  0
CIRCLE
  5
2B75
  8
TK1
 10
624.44929068447323
 20
247.54846993147891
 30
0.0
 40
1.6000000000000001
  0
CIRCLE
  5
2B7A
  8
TK1
 10
619.36929068447319
 20
247.54846993147891
 30
0.0
 40
1.6000000000000001
  0
CIRCLE
  5
2B7F
  8
TK1
 10
614.28929068447314
 20
247.54846993147891
 30
0.0
 40
1.6000000000000001
  0
CIRCLE
  5
2B84
  8
TK1
 10
609.20929068447322
 20
247.54846993147891
 30
0.0
 40
1.6000000000000001
  0
CIRCLE
  5
2B89
  8
TK1
 10
604.12929068447318
 20
247.54846993147891
 30
0.0
 40
1.6000000000000001
  0
CIRCLE
  5
2B8E
  8
TK1
 10
599.04929068447314
 20
247.54846993147891
 30
0.0
 40
1.6000000000000001
  0
CIRCLE
  5
2B93
  8
TK1
 10
593.96929068447321
 20
247.54846993147891
 30
0.0
 40
1.6000000000000001
  0
CIRCLE
  5
2B98
  8
TK1
 10
588.88929068447305
 20
247.54846993147891
 30
0.0
 40
1.6000000000000001
  0
CIRCLE
  5
2B9D
  8
TK1
 10
583.80929068447313
 20
247.54846993147891
 30
0.0
 40
1.6000000000000001
  0
CIRCLE
  5
2BA2
  8
TK1
 10
578.7292906844732
 20
247.54846993147891
 30
0.0
 40
1.6000000000000001
  0
CIRCLE
  5
2BA7
  8
TK1
 10
573.64929068447316
 20
247.54846993147891
 30
0.0
 40
1.6000000000000001
  0
CIRCLE
  5
2BAC
  8
TK1
 10
568.56929068447323
 20
247.54846993147891
 30
0.0
 40
1.6000000000000001
  0
CIRCLE
  5
2BB1
  8
TK1
 10
563.48929068447319
 20
247.54846993147891
 30
0.0
 40
1.6000000000000001
  0
CIRCLE
  5
2BB6
  8
TK1
 10
558.40929068447315
 20
247.54846993147891
 30
0.0
 40
1.6000000000000001
  0
CIRCLE
  5
2BBB
  8
TK1
 10
553.32929068447322
 20
247.54846993147891
 30
0.0
 40
1.6000000000000001
  0
CIRCLE
  5
2BC0
  8
TK1
 10
548.24929068447318
 20
247.54846993147891
 30
0.0
 40
1.6000000000000001
  0
CIRCLE
  5
2BC5
  8
TK1
 10
543.16929068447325
 20
247.54846993147891
 30
0.0
 40
1.6000000000000001
  0
CIRCLE
  5
2BCA
  8
TK1
 10
538.0892906844731
 20
247.54846993147891
 30
0.0
 40
1.6000000000000001
  0
CIRCLE
  5
2BCF
  8
TK1
 10
533.00929068447317
 20
247.54846993147891
 30
0.0
 40
1.6000000000000001
  0
CIRCLE
  5
2BD4
  8
TK1
 10
527.92929068447324
 20
247.54846993147891
 30
0.0
 40
1.6000000000000001
  0
CIRCLE
  5
2BD9
  8
TK1
 10
522.84929068447309
 20
247.54846993147891
 30
0.0
 40
1.6000000000000001
  0
CIRCLE
  5
2BDE
  8
TK1
 10
517.76929068447316
 20
247.54846993147891
 30
0.0
 40
1.6000000000000001
  0
CIRCLE
  5
2BE3
  8
TK1
 10
512.68929068447324
 20
247.54846993147891
 30
0.0
 40
1.6000000000000001
  0
CIRCLE
  5
2BE8
  8
TK1
 10
507.60929068447308
 20
247.54846993147891
 30
0.0
 40
1.6000000000000001
  0
CIRCLE
  5
2BED
  8
TK1
 10
502.52929068447321
 20
247.54846993147891
 30
0.0
 40
1.6000000000000001
  0
CIRCLE
  5
2BF2
  8
TK1
 10
497.44929068447323
 20
247.54846993147891
 30
0.0
 40
1.6000000000000001
  0
CIRCLE
  5
2BF7
  8
TK1
 10
492.36929068447313
 20
247.54846993147891
 30
0.0
 40
1.6000000000000001
  0
CIRCLE
  5
2BFC
  8
TK1
 10
487.28929068447309
 20
247.54846993147891
 30
0.0
 40
1.6000000000000001
  0
CIRCLE
  5
2C01
  8
TK1
 10
482.20929068447322
 20
247.54846993147891
 30
0.0
 40
1.6000000000000001
  0
CIRCLE
  5
2C06
  8
TK1
 10
477.12929068447312
 20
247.54846993147891
 30
0.0
 40
1.6000000000000001
  0
CIRCLE
  5
2C0B
  8
TK1
 10
472.04929068447308
 20
247.54846993147891
 30
0.0
 40
1.6000000000000001
  0
CIRCLE
  5
2C10
  8
TK1
 10
466.96929068447321
 20
247.54846993147891
 30
0.0
 40
1.6000000000000001
  0
CIRCLE
  5
2C15
  8
TK1
 10
461.88929068447311
 20
247.54846993147891
 30
0.0
 40
1.6000000000000001
  0
LINE
  5
2C16
  8
TK1
 10
675.24929068447307
 20
318.05582116952672
 30
0.0
 11
459.34929068447298
 21
318.05582116952672
 31
0.0
  0
LINE
  5
2C17
  8
TK1
 10
675.24929068447307
 20
318.05582116952672
 30
0.0
 11
675.24929068447307
 21
312.55582116952672
 31
0.0
  0
LINE
  5
2C18
  8
TK1
 10
675.24929068447307
 20
312.55582116952672
 30
0.0
 11
459.34929068447298
 21
312.55582116952672
 31
0.0
  0
LINE
  5
2C19
  8
TK1
 10
675.24929068447307
 20
315.55582116952672
 30
0.0
 11
459.34929068447298
 21
315.55582116952672
 31
0.0
  0
ARC
  5
2C1A
  8
TK1
 10
675.24929068447307
 20
247.54846993147879
 30
0.0
 40
1.6000000000000001
 50
90.0
 51
269.99999999999687
  0
VIEWPORT
  5
17C
 67
     1
  8
0
 10
133.34999084472651
 20
101.5999970436096
 30
0.0
 40
370.22669129365238
 41
228.4221935424805
 68
     1
 69
     1
1001
ACAD
1000
MVIEW
1002
{
1070
    16
1010
0.0
1020
0.0
1030
0.0
1010
0.0
1020
0.0
1030
1.0
1040
0.0
1040
228.4221935424805
1040
133.34999084472651
1040
101.5999970436096
1040
50.0
1040
0.0
1040
0.0
1070
     0
1070
   100
1070
     1
1070
     1
1070
     0
1070
     0
1070
     0
1070
     0
1040
0.0
1040
0.0
1040
0.0
1040
10.0
1040
10.0
1040
10.0
1040
10.0
1070
     0
1002
{
1002
}
1002
}
1001
GENIUS_GENOBJ-N-SDF_13
1002
{
1000
OWNER
1000
GEN
1002
}
1001
GENIUS_GENODEF_13
1002
{
1000
HIER
1070
     0
1002
}
1002
{
1000
MANEDIT
1070
     0
1002
}
1002
{
1000
NOSEL
1070
     0
1002
}
1002
{
1000
BEHIND
1070
     0
1002
}
1002
{
1000
OTHER
1070
     0
1002
}
1002
{
1000
REACTOR
1002
}
1001
GENIUS_GENSCREG_15
1000
PF
1040
1.0
1000
DF
1040
1.0
1000
MIN
1011
-51.763354802099627
1021
0.0
1031
0.0
1021
-12.6110997276306
1031
0.0
1000
MAX
1011
318.4633364915527
1021
0.0
1031
0.0
1021
215.8110938148499
1031
0.0
1000
FLAGS
1070
     2
  0
ENDSEC
  0
EOF
